ISO-10303-21;
HEADER;
/****************************************************************
 * Generated by software with PDE/Lib inside                    *
 * PDElib Version v51a, created Tue 12/06/2005                  *
 * International Technegroup Inc. (www.iti-oh.com)              *
 ****************************************************************/
FILE_DESCRIPTION((''),'2;1');
FILE_NAME('\\\\pc50\\users\\dpp\\DraftingIncoming\\6080-133 FieldCageTermination Plate-3.stp','2008-02-21T14:50:55',('mds'),(''),'Autodesk Inventor 11','Autodesk Inventor 11','');
FILE_SCHEMA(('AUTOMOTIVE_DESIGN { 1 0 10303 214 1 1 1 1 }'));
ENDSEC;
DATA;
#5=APPLICATION_CONTEXT('automotive design');
#6=APPLICATION_PROTOCOL_DEFINITION('International Standard','automotive_design',2001,#5);
#7=PRODUCT_CONTEXT('',#5,'mechanical');
#8=PRODUCT('6080-133 FieldCageTermination Plate-3','6080-133 FieldCageTermination Plate-3',$,(#7));
#9=PRODUCT_RELATED_PRODUCT_CATEGORY('part',$,(#8));
#10=PRODUCT_DEFINITION_FORMATION('',$,#8);
#11=PRODUCT_DEFINITION_CONTEXT('part definition',#5,'design');
#12=PRODUCT_DEFINITION('',$,#10,#11);
#18=(NAMED_UNIT(*)PLANE_ANGLE_UNIT()SI_UNIT($,.RADIAN.));
#19=DIMENSIONAL_EXPONENTS(0.0,0.0,0.0,0.0,0.0,0.0,0.0);
#20=PLANE_ANGLE_MEASURE_WITH_UNIT(PLANE_ANGLE_MEASURE(0.017453292500000),#18);
#24=(CONVERSION_BASED_UNIT('DEGREE',#20)NAMED_UNIT(#19)PLANE_ANGLE_UNIT());
#28=(NAMED_UNIT(*)SI_UNIT($,.STERADIAN.)SOLID_ANGLE_UNIT());
#32=(LENGTH_UNIT()NAMED_UNIT(*)SI_UNIT(.MILLI.,.METRE.));
#34=UNCERTAINTY_MEASURE_WITH_UNIT(LENGTH_MEASURE(0.010000000000000),#32,'DISTANCE_ACCURACY_VALUE','');
#36=(GEOMETRIC_REPRESENTATION_CONTEXT(3)GLOBAL_UNCERTAINTY_ASSIGNED_CONTEXT((#34))GLOBAL_UNIT_ASSIGNED_CONTEXT((#24,#28,#32))REPRESENTATION_CONTEXT('None','None'));
#37=AXIS2_PLACEMENT_3D('',#38,#39,#40);
#38=CARTESIAN_POINT('',(0.0,0.0,0.0));
#39=DIRECTION('',(0.0,0.0,1.0));
#40=DIRECTION('',(1.0,0.0,0.0));
#41=SHAPE_REPRESENTATION('',(#37),#36);
#42=PRODUCT_DEFINITION_SHAPE('','',#12);
#43=SHAPE_DEFINITION_REPRESENTATION(#42,#41);
#44=CARTESIAN_POINT('',(339.732843960557260,70.587193931989873,7.620989449764984));
#45=DIRECTION('',(0.0,0.0,-1.0));
#46=DIRECTION('',(1.0,0.0,0.0));
#47=AXIS2_PLACEMENT_3D('',#44,#45,#46);
#48=CONICAL_SURFACE('',#47,1.033500000000000,59.000000000000007);
#49=CARTESIAN_POINT('',(341.799843960557210,70.587193931989873,7.000000000000001));
#50=VERTEX_POINT('',#49);
#51=CARTESIAN_POINT('',(339.732843960557260,70.587193931989873,7.000000000000001));
#52=DIRECTION('',(0.0,0.0,1.0));
#53=DIRECTION('',(1.0,0.0,0.0));
#54=AXIS2_PLACEMENT_3D('',#51,#52,#53);
#55=CIRCLE('',#54,2.067000000000000);
#56=EDGE_CURVE('',#50,#50,#55,.T.);
#57=ORIENTED_EDGE('',*,*,#56,.F.);
#58=EDGE_LOOP('',(#57));
#59=FACE_OUTER_BOUND('',#58,.T.);
#60=ADVANCED_FACE('',(#59),#48,.F.);
#61=CARTESIAN_POINT('',(339.732843960557260,70.587193931989873,3.500000000000000));
#62=DIRECTION('',(0.0,0.0,1.0));
#63=DIRECTION('',(1.0,0.0,0.0));
#64=AXIS2_PLACEMENT_3D('',#61,#62,#63);
#65=CYLINDRICAL_SURFACE('',#64,2.067000000000000);
#66=CARTESIAN_POINT('',(341.799843960557210,70.587193931989873,0.0));
#67=VERTEX_POINT('',#66);
#68=CARTESIAN_POINT('',(339.732843960557260,70.587193931989873,0.0));
#69=DIRECTION('',(0.0,0.0,1.0));
#70=DIRECTION('',(1.0,0.0,0.0));
#71=AXIS2_PLACEMENT_3D('',#68,#69,#70);
#72=CIRCLE('',#71,2.067000000000000);
#73=EDGE_CURVE('',#67,#67,#72,.T.);
#74=ORIENTED_EDGE('',*,*,#73,.F.);
#75=EDGE_LOOP('',(#74));
#76=FACE_OUTER_BOUND('',#75,.T.);
#77=ORIENTED_EDGE('',*,*,#56,.T.);
#78=EDGE_LOOP('',(#77));
#79=FACE_BOUND('',#78,.T.);
#80=ADVANCED_FACE('',(#76,#79),#65,.F.);
#81=CARTESIAN_POINT('',(200.416137739782530,94.309160453368349,7.620989449764984));
#82=DIRECTION('',(0.0,0.0,-1.0));
#83=DIRECTION('',(1.0,0.0,0.0));
#84=AXIS2_PLACEMENT_3D('',#81,#82,#83);
#85=CONICAL_SURFACE('',#84,1.033500000000000,59.000000000000007);
#86=CARTESIAN_POINT('',(202.483137739782530,94.309160453368349,7.000000000000001));
#87=VERTEX_POINT('',#86);
#88=CARTESIAN_POINT('',(200.416137739782530,94.309160453368349,7.000000000000001));
#89=DIRECTION('',(0.0,0.0,1.0));
#90=DIRECTION('',(1.0,0.0,0.0));
#91=AXIS2_PLACEMENT_3D('',#88,#89,#90);
#92=CIRCLE('',#91,2.067000000000000);
#93=EDGE_CURVE('',#87,#87,#92,.T.);
#94=ORIENTED_EDGE('',*,*,#93,.F.);
#95=EDGE_LOOP('',(#94));
#96=FACE_OUTER_BOUND('',#95,.T.);
#97=ADVANCED_FACE('',(#96),#85,.F.);
#98=CARTESIAN_POINT('',(200.416137739782530,94.309160453368349,3.500000000000000));
#99=DIRECTION('',(0.0,0.0,1.0));
#100=DIRECTION('',(1.0,0.0,0.0));
#101=AXIS2_PLACEMENT_3D('',#98,#99,#100);
#102=CYLINDRICAL_SURFACE('',#101,2.067000000000000);
#103=CARTESIAN_POINT('',(202.483137739782530,94.309160453368349,0.0));
#104=VERTEX_POINT('',#103);
#105=CARTESIAN_POINT('',(200.416137739782530,94.309160453368349,0.0));
#106=DIRECTION('',(0.0,0.0,1.0));
#107=DIRECTION('',(1.0,0.0,0.0));
#108=AXIS2_PLACEMENT_3D('',#105,#106,#107);
#109=CIRCLE('',#108,2.067000000000000);
#110=EDGE_CURVE('',#104,#104,#109,.T.);
#111=ORIENTED_EDGE('',*,*,#110,.F.);
#112=EDGE_LOOP('',(#111));
#113=FACE_OUTER_BOUND('',#112,.T.);
#114=ORIENTED_EDGE('',*,*,#93,.T.);
#115=EDGE_LOOP('',(#114));
#116=FACE_BOUND('',#115,.T.);
#117=ADVANCED_FACE('',(#113,#116),#102,.F.);
#118=CARTESIAN_POINT('',(220.088703154876300,242.132117508181750,7.620989449764984));
#119=DIRECTION('',(0.0,0.0,-1.0));
#120=DIRECTION('',(1.0,0.0,0.0));
#121=AXIS2_PLACEMENT_3D('',#118,#119,#120);
#122=CONICAL_SURFACE('',#121,1.033500000000000,59.000000000000007);
#123=CARTESIAN_POINT('',(222.155703154876330,242.132117508181750,7.000000000000001));
#124=VERTEX_POINT('',#123);
#125=CARTESIAN_POINT('',(220.088703154876300,242.132117508181750,7.000000000000001));
#126=DIRECTION('',(0.0,0.0,1.0));
#127=DIRECTION('',(1.0,0.0,0.0));
#128=AXIS2_PLACEMENT_3D('',#125,#126,#127);
#129=CIRCLE('',#128,2.067000000000000);
#130=EDGE_CURVE('',#124,#124,#129,.T.);
#131=ORIENTED_EDGE('',*,*,#130,.F.);
#132=EDGE_LOOP('',(#131));
#133=FACE_OUTER_BOUND('',#132,.T.);
#134=ADVANCED_FACE('',(#133),#122,.F.);
#135=CARTESIAN_POINT('',(220.088703154876300,242.132117508181750,3.500000000000000));
#136=DIRECTION('',(0.0,0.0,1.0));
#137=DIRECTION('',(1.0,0.0,0.0));
#138=AXIS2_PLACEMENT_3D('',#135,#136,#137);
#139=CYLINDRICAL_SURFACE('',#138,2.067000000000000);
#140=CARTESIAN_POINT('',(222.155703154876330,242.132117508181750,0.0));
#141=VERTEX_POINT('',#140);
#142=CARTESIAN_POINT('',(220.088703154876300,242.132117508181750,0.0));
#143=DIRECTION('',(0.0,0.0,1.0));
#144=DIRECTION('',(1.0,0.0,0.0));
#145=AXIS2_PLACEMENT_3D('',#142,#143,#144);
#146=CIRCLE('',#145,2.067000000000000);
#147=EDGE_CURVE('',#141,#141,#146,.T.);
#148=ORIENTED_EDGE('',*,*,#147,.F.);
#149=EDGE_LOOP('',(#148));
#150=FACE_OUTER_BOUND('',#149,.T.);
#151=ORIENTED_EDGE('',*,*,#130,.T.);
#152=EDGE_LOOP('',(#151));
#153=FACE_BOUND('',#152,.T.);
#154=ADVANCED_FACE('',(#150,#153),#139,.F.);
#155=CARTESIAN_POINT('',(253.277226889019060,237.134212298020120,7.620989449764984));
#156=DIRECTION('',(0.0,0.0,-1.0));
#157=DIRECTION('',(1.0,0.0,0.0));
#158=AXIS2_PLACEMENT_3D('',#155,#156,#157);
#159=CONICAL_SURFACE('',#158,1.033500000000000,59.000000000000007);
#160=CARTESIAN_POINT('',(255.344226889019100,237.134212298020120,7.000000000000001));
#161=VERTEX_POINT('',#160);
#162=CARTESIAN_POINT('',(253.277226889019060,237.134212298020120,7.000000000000001));
#163=DIRECTION('',(0.0,0.0,1.0));
#164=DIRECTION('',(1.0,0.0,0.0));
#165=AXIS2_PLACEMENT_3D('',#162,#163,#164);
#166=CIRCLE('',#165,2.067000000000000);
#167=EDGE_CURVE('',#161,#161,#166,.T.);
#168=ORIENTED_EDGE('',*,*,#167,.F.);
#169=EDGE_LOOP('',(#168));
#170=FACE_OUTER_BOUND('',#169,.T.);
#171=ADVANCED_FACE('',(#170),#159,.F.);
#172=CARTESIAN_POINT('',(253.277226889019060,237.134212298020120,3.500000000000000));
#173=DIRECTION('',(0.0,0.0,1.0));
#174=DIRECTION('',(1.0,0.0,0.0));
#175=AXIS2_PLACEMENT_3D('',#172,#173,#174);
#176=CYLINDRICAL_SURFACE('',#175,2.067000000000000);
#177=CARTESIAN_POINT('',(255.344226889019100,237.134212298020120,0.0));
#178=VERTEX_POINT('',#177);
#179=CARTESIAN_POINT('',(253.277226889019060,237.134212298020120,0.0));
#180=DIRECTION('',(0.0,0.0,1.0));
#181=DIRECTION('',(1.0,0.0,0.0));
#182=AXIS2_PLACEMENT_3D('',#179,#180,#181);
#183=CIRCLE('',#182,2.067000000000000);
#184=EDGE_CURVE('',#178,#178,#183,.T.);
#185=ORIENTED_EDGE('',*,*,#184,.F.);
#186=EDGE_LOOP('',(#185));
#187=FACE_OUTER_BOUND('',#186,.T.);
#188=ORIENTED_EDGE('',*,*,#167,.T.);
#189=EDGE_LOOP('',(#188));
#190=FACE_BOUND('',#189,.T.);
#191=ADVANCED_FACE('',(#187,#190),#176,.F.);
#192=CARTESIAN_POINT('',(263.454292510597900,144.289697390801280,0.0));
#193=DIRECTION('',(0.0,0.0,1.0));
#194=DIRECTION('',(1.0,0.0,0.0));
#195=AXIS2_PLACEMENT_3D('',#192,#193,#194);
#196=PLANE('',#195);
#197=CARTESIAN_POINT('',(258.219413100220610,246.462290376098000,0.0));
#198=VERTEX_POINT('',#197);
#199=CARTESIAN_POINT('',(352.318463688932580,57.568568818513199,0.0));
#200=VERTEX_POINT('',#199);
#201=CARTESIAN_POINT('',(0.0,-0.056947611889582,0.0));
#202=DIRECTION('',(0.0,0.0,-1.000000000000000));
#203=DIRECTION('',(-0.986886452910174,-0.161416012410092,0.0));
#204=AXIS2_PLACEMENT_3D('',#201,#202,#203);
#205=CIRCLE('',#204,356.999999999999940);
#206=EDGE_CURVE('',#198,#200,#205,.T.);
#207=ORIENTED_EDGE('',*,*,#206,.T.);
#208=CARTESIAN_POINT('',(189.170178508558020,85.609303005206527,0.0));
#209=VERTEX_POINT('',#208);
#210=CARTESIAN_POINT('',(2.764455E-013,-1503.671947611889700,0.0));
#211=DIRECTION('',(0.0,0.0,1.000000000000000));
#212=DIRECTION('',(0.220130249102738,0.975470488241426,0.0));
#213=AXIS2_PLACEMENT_3D('',#210,#211,#212);
#214=CIRCLE('',#213,1600.500000000000000);
#215=EDGE_CURVE('',#200,#209,#214,.T.);
#216=ORIENTED_EDGE('',*,*,#215,.T.);
#217=CARTESIAN_POINT('',(211.499851463124490,253.398211902587320,0.0));
#218=VERTEX_POINT('',#217);
#219=CARTESIAN_POINT('',(189.170178508558020,85.609303005206527,0.0));
#220=DIRECTION('',(0.131918869343026,0.991260516671202,0.0));
#221=VECTOR('',#220,169.268225734280800);
#222=LINE('',#219,#221);
#223=EDGE_CURVE('',#209,#218,#222,.T.);
#224=ORIENTED_EDGE('',*,*,#223,.T.);
#225=CARTESIAN_POINT('',(2.448042E-013,-1332.056947611889700,0.0));
#226=DIRECTION('',(0.0,0.0,-1.0));
#227=DIRECTION('',(-0.161437582432148,-0.986882924656448,0.0));
#228=AXIS2_PLACEMENT_3D('',#225,#226,#227);
#229=CIRCLE('',#228,1599.499999999999300);
#230=EDGE_CURVE('',#218,#198,#229,.T.);
#231=ORIENTED_EDGE('',*,*,#230,.T.);
#232=EDGE_LOOP('',(#207,#216,#224,#231));
#233=FACE_OUTER_BOUND('',#232,.T.);
#234=ORIENTED_EDGE('',*,*,#73,.T.);
#235=EDGE_LOOP('',(#234));
#236=FACE_BOUND('',#235,.T.);
#237=ORIENTED_EDGE('',*,*,#110,.T.);
#238=EDGE_LOOP('',(#237));
#239=FACE_BOUND('',#238,.T.);
#240=ORIENTED_EDGE('',*,*,#147,.T.);
#241=EDGE_LOOP('',(#240));
#242=FACE_BOUND('',#241,.T.);
#243=ORIENTED_EDGE('',*,*,#184,.T.);
#244=EDGE_LOOP('',(#243));
#245=FACE_BOUND('',#244,.T.);
#246=ADVANCED_FACE('',(#233,#236,#239,#242,#245),#196,.F.);
#247=CARTESIAN_POINT('',(0.0,-0.056947611889582,0.0));
#248=DIRECTION('',(0.0,0.0,1.0));
#249=DIRECTION('',(-0.986886452910174,-0.161416012410092,0.0));
#250=AXIS2_PLACEMENT_3D('',#247,#248,#249);
#251=CYLINDRICAL_SURFACE('',#250,356.999999999999940);
#252=CARTESIAN_POINT('',(258.219413100220610,246.462290376098000,9.0));
#253=VERTEX_POINT('',#252);
#254=CARTESIAN_POINT('',(352.318463688932580,57.568568818513199,9.0));
#255=VERTEX_POINT('',#254);
#256=CARTESIAN_POINT('',(0.0,-0.056947611889582,9.0));
#257=DIRECTION('',(0.0,0.0,-1.000000000000000));
#258=DIRECTION('',(-0.986886452910174,-0.161416012410092,0.0));
#259=AXIS2_PLACEMENT_3D('',#256,#257,#258);
#260=CIRCLE('',#259,356.999999999999940);
#261=EDGE_CURVE('',#253,#255,#260,.T.);
#262=ORIENTED_EDGE('',*,*,#261,.T.);
#263=CARTESIAN_POINT('',(352.318463688932580,57.568568818513199,0.0));
#264=DIRECTION('',(0.0,0.0,1.0));
#265=VECTOR('',#264,9.0);
#266=LINE('',#263,#265);
#267=EDGE_CURVE('',#200,#255,#266,.T.);
#268=ORIENTED_EDGE('',*,*,#267,.F.);
#269=ORIENTED_EDGE('',*,*,#206,.F.);
#270=CARTESIAN_POINT('',(258.219413100220610,246.462290376098000,0.0));
#271=DIRECTION('',(0.0,0.0,1.0));
#272=VECTOR('',#271,9.0);
#273=LINE('',#270,#272);
#274=EDGE_CURVE('',#198,#253,#273,.T.);
#275=ORIENTED_EDGE('',*,*,#274,.T.);
#276=EDGE_LOOP('',(#262,#268,#269,#275));
#277=FACE_OUTER_BOUND('',#276,.T.);
#278=ADVANCED_FACE('',(#277),#251,.T.);
#279=CARTESIAN_POINT('',(2.764455E-013,-1503.671947611889700,0.0));
#280=DIRECTION('',(0.0,0.0,1.0));
#281=DIRECTION('',(0.220130249102738,0.975470488241426,0.0));
#282=AXIS2_PLACEMENT_3D('',#279,#280,#281);
#283=CYLINDRICAL_SURFACE('',#282,1600.500000000000200);
#284=CARTESIAN_POINT('',(189.170178508558020,85.609303005206527,9.0));
#285=VERTEX_POINT('',#284);
#286=CARTESIAN_POINT('',(2.764455E-013,-1503.671947611889700,9.0));
#287=DIRECTION('',(0.0,0.0,1.000000000000000));
#288=DIRECTION('',(0.220130249102738,0.975470488241426,0.0));
#289=AXIS2_PLACEMENT_3D('',#286,#287,#288);
#290=CIRCLE('',#289,1600.500000000000000);
#291=EDGE_CURVE('',#255,#285,#290,.T.);
#292=ORIENTED_EDGE('',*,*,#291,.T.);
#293=CARTESIAN_POINT('',(189.170178508558020,85.609303005206527,0.0));
#294=DIRECTION('',(0.0,0.0,1.0));
#295=VECTOR('',#294,9.0);
#296=LINE('',#293,#295);
#297=EDGE_CURVE('',#209,#285,#296,.T.);
#298=ORIENTED_EDGE('',*,*,#297,.F.);
#299=ORIENTED_EDGE('',*,*,#215,.F.);
#300=ORIENTED_EDGE('',*,*,#267,.T.);
#301=EDGE_LOOP('',(#292,#298,#299,#300));
#302=FACE_OUTER_BOUND('',#301,.T.);
#303=ADVANCED_FACE('',(#302),#283,.F.);
#304=CARTESIAN_POINT('',(189.170178508558020,85.609303005206527,0.0));
#305=DIRECTION('',(-0.991260516671202,0.131918869343026,0.0));
#306=DIRECTION('',(0.0,0.0,1.0));
#307=AXIS2_PLACEMENT_3D('',#304,#305,#306);
#308=PLANE('',#307);
#309=ORIENTED_EDGE('',*,*,#223,.F.);
#310=ORIENTED_EDGE('',*,*,#297,.T.);
#311=CARTESIAN_POINT('',(211.499851463124490,253.398211902587320,9.0));
#312=VERTEX_POINT('',#311);
#313=CARTESIAN_POINT('',(189.170178508558020,85.609303005206527,9.0));
#314=DIRECTION('',(0.131918869343026,0.991260516671202,0.0));
#315=VECTOR('',#314,169.268225734280800);
#316=LINE('',#313,#315);
#317=EDGE_CURVE('',#285,#312,#316,.T.);
#318=ORIENTED_EDGE('',*,*,#317,.T.);
#319=CARTESIAN_POINT('',(211.499851463124490,253.398211902587320,0.0));
#320=DIRECTION('',(0.0,0.0,1.0));
#321=VECTOR('',#320,9.0);
#322=LINE('',#319,#321);
#323=EDGE_CURVE('',#218,#312,#322,.T.);
#324=ORIENTED_EDGE('',*,*,#323,.F.);
#325=EDGE_LOOP('',(#309,#310,#318,#324));
#326=FACE_OUTER_BOUND('',#325,.T.);
#327=ADVANCED_FACE('',(#326),#308,.T.);
#328=CARTESIAN_POINT('',(2.448042E-013,-1332.056947611889700,0.0));
#329=DIRECTION('',(0.0,0.0,1.0));
#330=DIRECTION('',(-0.161437582432148,-0.986882924656448,0.0));
#331=AXIS2_PLACEMENT_3D('',#328,#329,#330);
#332=CYLINDRICAL_SURFACE('',#331,1599.499999999999300);
#333=ORIENTED_EDGE('',*,*,#230,.F.);
#334=ORIENTED_EDGE('',*,*,#323,.T.);
#335=CARTESIAN_POINT('',(2.448042E-013,-1332.056947611889700,9.0));
#336=DIRECTION('',(0.0,0.0,-1.0));
#337=DIRECTION('',(-0.161437582432148,-0.986882924656448,0.0));
#338=AXIS2_PLACEMENT_3D('',#335,#336,#337);
#339=CIRCLE('',#338,1599.499999999999300);
#340=EDGE_CURVE('',#312,#253,#339,.T.);
#341=ORIENTED_EDGE('',*,*,#340,.T.);
#342=ORIENTED_EDGE('',*,*,#274,.F.);
#343=EDGE_LOOP('',(#333,#334,#341,#342));
#344=FACE_OUTER_BOUND('',#343,.T.);
#345=ADVANCED_FACE('',(#344),#332,.T.);
#346=CARTESIAN_POINT('',(263.454292510597840,144.289697390801280,9.0));
#347=DIRECTION('',(0.0,0.0,1.0));
#348=DIRECTION('',(1.0,0.0,0.0));
#349=AXIS2_PLACEMENT_3D('',#346,#347,#348);
#350=PLANE('',#349);
#351=ORIENTED_EDGE('',*,*,#291,.F.);
#352=ORIENTED_EDGE('',*,*,#261,.F.);
#353=ORIENTED_EDGE('',*,*,#340,.F.);
#354=ORIENTED_EDGE('',*,*,#317,.F.);
#355=EDGE_LOOP('',(#351,#352,#353,#354));
#356=FACE_OUTER_BOUND('',#355,.T.);
#357=ADVANCED_FACE('',(#356),#350,.T.);
#358=CLOSED_SHELL('',(#60,#80,#97,#117,#134,#154,#171,#191,#246,#278,#303,#327,#345,#357));
#359=MANIFOLD_SOLID_BREP('',#358);
#360=COLOUR_RGB('Gold Metallic',0.678430974483490,0.533333003520966,0.094117596745491);
#361=FILL_AREA_STYLE_COLOUR('Gold Metallic',#360);
#362=FILL_AREA_STYLE('Gold Metallic',(#361));
#363=SURFACE_STYLE_FILL_AREA(#362);
#364=SURFACE_SIDE_STYLE('Gold Metallic',(#363));
#365=SURFACE_STYLE_USAGE(.BOTH.,#364);
#366=PRESENTATION_STYLE_ASSIGNMENT((#365));
#367=STYLED_ITEM('',(#366),#359);
#368=MECHANICAL_DESIGN_GEOMETRIC_PRESENTATION_REPRESENTATION('',(#367),#36);
#369=ADVANCED_BREP_SHAPE_REPRESENTATION('ABSR',(#359),#36);
#370=SHAPE_REPRESENTATION_RELATIONSHIP('SRR','None',#369,#41);
ENDSEC;
END-ISO-10303-21;
