ISO-10303-21;
HEADER;
/****************************************************************
 * Generated by software with PDE/Lib inside                    *
 * PDElib Version v51a, created Tue 12/06/2005                  *
 * International Technegroup Inc. (www.iti-oh.com)              *
 ****************************************************************/
FILE_DESCRIPTION((''),'2;1');
FILE_NAME('\\\\pc50\\users\\dpp\\DraftingIncoming\\6080-134 FieldCageTerminationPlate-4.stp','2008-02-21T14:51:58',('mds'),(''),'Autodesk Inventor 11','Autodesk Inventor 11','');
FILE_SCHEMA(('AUTOMOTIVE_DESIGN { 1 0 10303 214 1 1 1 1 }'));
ENDSEC;
DATA;
#5=APPLICATION_CONTEXT('automotive design');
#6=APPLICATION_PROTOCOL_DEFINITION('International Standard','automotive_design',2001,#5);
#7=PRODUCT_CONTEXT('',#5,'mechanical');
#8=PRODUCT('6080-134 FieldCageTerminationPlate-4','6080-134 FieldCageTerminationPlate-4',$,(#7));
#9=PRODUCT_RELATED_PRODUCT_CATEGORY('part',$,(#8));
#10=PRODUCT_DEFINITION_FORMATION('',$,#8);
#11=PRODUCT_DEFINITION_CONTEXT('part definition',#5,'design');
#12=PRODUCT_DEFINITION('',$,#10,#11);
#18=(NAMED_UNIT(*)PLANE_ANGLE_UNIT()SI_UNIT($,.RADIAN.));
#19=DIMENSIONAL_EXPONENTS(0.0,0.0,0.0,0.0,0.0,0.0,0.0);
#20=PLANE_ANGLE_MEASURE_WITH_UNIT(PLANE_ANGLE_MEASURE(0.017453292500000),#18);
#24=(CONVERSION_BASED_UNIT('DEGREE',#20)NAMED_UNIT(#19)PLANE_ANGLE_UNIT());
#28=(NAMED_UNIT(*)SI_UNIT($,.STERADIAN.)SOLID_ANGLE_UNIT());
#32=(LENGTH_UNIT()NAMED_UNIT(*)SI_UNIT(.MILLI.,.METRE.));
#34=UNCERTAINTY_MEASURE_WITH_UNIT(LENGTH_MEASURE(0.010000000000000),#32,'DISTANCE_ACCURACY_VALUE','');
#36=(GEOMETRIC_REPRESENTATION_CONTEXT(3)GLOBAL_UNCERTAINTY_ASSIGNED_CONTEXT((#34))GLOBAL_UNIT_ASSIGNED_CONTEXT((#24,#28,#32))REPRESENTATION_CONTEXT('None','None'));
#37=AXIS2_PLACEMENT_3D('',#38,#39,#40);
#38=CARTESIAN_POINT('',(0.0,0.0,0.0));
#39=DIRECTION('',(0.0,0.0,1.0));
#40=DIRECTION('',(1.0,0.0,0.0));
#41=SHAPE_REPRESENTATION('',(#37),#36);
#42=PRODUCT_DEFINITION_SHAPE('','',#12);
#43=SHAPE_DEFINITION_REPRESENTATION(#42,#41);
#44=CARTESIAN_POINT('',(-326.822130226085390,-100.407683671715590,7.620989449764984));
#45=DIRECTION('',(0.0,0.0,-1.0));
#46=DIRECTION('',(1.0,0.0,0.0));
#47=AXIS2_PLACEMENT_3D('',#44,#45,#46);
#48=CONICAL_SURFACE('',#47,1.033500000000000,59.000000000000007);
#49=CARTESIAN_POINT('',(-324.755130226085380,-100.407683671715590,7.000000000000001));
#50=VERTEX_POINT('',#49);
#51=CARTESIAN_POINT('',(-326.822130226085390,-100.407683671715590,7.000000000000001));
#52=DIRECTION('',(0.0,0.0,1.0));
#53=DIRECTION('',(1.0,0.0,0.0));
#54=AXIS2_PLACEMENT_3D('',#51,#52,#53);
#55=CIRCLE('',#54,2.067000000000000);
#56=EDGE_CURVE('',#50,#50,#55,.T.);
#57=ORIENTED_EDGE('',*,*,#56,.F.);
#58=EDGE_LOOP('',(#57));
#59=FACE_OUTER_BOUND('',#58,.T.);
#60=ADVANCED_FACE('',(#59),#48,.F.);
#61=CARTESIAN_POINT('',(-326.822130226085390,-100.407683671715590,3.500000000000000));
#62=DIRECTION('',(0.0,0.0,1.0));
#63=DIRECTION('',(1.0,0.0,0.0));
#64=AXIS2_PLACEMENT_3D('',#61,#62,#63);
#65=CYLINDRICAL_SURFACE('',#64,2.067000000000000);
#66=CARTESIAN_POINT('',(-324.755130226085380,-100.407683671715590,0.0));
#67=VERTEX_POINT('',#66);
#68=CARTESIAN_POINT('',(-326.822130226085390,-100.407683671715590,0.0));
#69=DIRECTION('',(0.0,0.0,1.0));
#70=DIRECTION('',(1.0,0.0,0.0));
#71=AXIS2_PLACEMENT_3D('',#68,#69,#70);
#72=CIRCLE('',#71,2.067000000000000);
#73=EDGE_CURVE('',#67,#67,#72,.T.);
#74=ORIENTED_EDGE('',*,*,#73,.F.);
#75=EDGE_LOOP('',(#74));
#76=FACE_OUTER_BOUND('',#75,.T.);
#77=ORIENTED_EDGE('',*,*,#56,.T.);
#78=EDGE_LOOP('',(#77));
#79=FACE_BOUND('',#78,.T.);
#80=ADVANCED_FACE('',(#76,#79),#65,.F.);
#81=CARTESIAN_POINT('',(-341.311308547686910,-62.574680642139626,7.620989449764984));
#82=DIRECTION('',(0.0,0.0,-1.0));
#83=DIRECTION('',(1.0,0.0,0.0));
#84=AXIS2_PLACEMENT_3D('',#81,#82,#83);
#85=CONICAL_SURFACE('',#84,1.033500000000000,59.000000000000007);
#86=CARTESIAN_POINT('',(-339.244308547686960,-62.574680642139626,7.000000000000001));
#87=VERTEX_POINT('',#86);
#88=CARTESIAN_POINT('',(-341.311308547686910,-62.574680642139626,7.000000000000001));
#89=DIRECTION('',(0.0,0.0,1.0));
#90=DIRECTION('',(1.0,0.0,0.0));
#91=AXIS2_PLACEMENT_3D('',#88,#89,#90);
#92=CIRCLE('',#91,2.067000000000000);
#93=EDGE_CURVE('',#87,#87,#92,.T.);
#94=ORIENTED_EDGE('',*,*,#93,.F.);
#95=EDGE_LOOP('',(#94));
#96=FACE_OUTER_BOUND('',#95,.T.);
#97=ADVANCED_FACE('',(#96),#85,.F.);
#98=CARTESIAN_POINT('',(-341.311308547686910,-62.574680642139626,3.500000000000000));
#99=DIRECTION('',(0.0,0.0,1.0));
#100=DIRECTION('',(1.0,0.0,0.0));
#101=AXIS2_PLACEMENT_3D('',#98,#99,#100);
#102=CYLINDRICAL_SURFACE('',#101,2.067000000000000);
#103=CARTESIAN_POINT('',(-339.244308547686960,-62.574680642139626,0.0));
#104=VERTEX_POINT('',#103);
#105=CARTESIAN_POINT('',(-341.311308547686910,-62.574680642139626,0.0));
#106=DIRECTION('',(0.0,0.0,1.0));
#107=DIRECTION('',(1.0,0.0,0.0));
#108=AXIS2_PLACEMENT_3D('',#105,#106,#107);
#109=CIRCLE('',#108,2.067000000000000);
#110=EDGE_CURVE('',#104,#104,#109,.T.);
#111=ORIENTED_EDGE('',*,*,#110,.F.);
#112=EDGE_LOOP('',(#111));
#113=FACE_OUTER_BOUND('',#112,.T.);
#114=ORIENTED_EDGE('',*,*,#93,.T.);
#115=EDGE_LOOP('',(#114));
#116=FACE_BOUND('',#115,.T.);
#117=ADVANCED_FACE('',(#113,#116),#102,.F.);
#118=CARTESIAN_POINT('',(-346.802697030367140,-11.699971472760362,7.620989449764984));
#119=DIRECTION('',(0.0,0.0,-1.0));
#120=DIRECTION('',(1.0,0.0,0.0));
#121=AXIS2_PLACEMENT_3D('',#118,#119,#120);
#122=CONICAL_SURFACE('',#121,1.033500000000000,59.000000000000007);
#123=CARTESIAN_POINT('',(-344.735697030367190,-11.699971472760362,7.000000000000001));
#124=VERTEX_POINT('',#123);
#125=CARTESIAN_POINT('',(-346.802697030367140,-11.699971472760362,7.000000000000001));
#126=DIRECTION('',(0.0,0.0,1.0));
#127=DIRECTION('',(1.0,0.0,0.0));
#128=AXIS2_PLACEMENT_3D('',#125,#126,#127);
#129=CIRCLE('',#128,2.067000000000000);
#130=EDGE_CURVE('',#124,#124,#129,.T.);
#131=ORIENTED_EDGE('',*,*,#130,.F.);
#132=EDGE_LOOP('',(#131));
#133=FACE_OUTER_BOUND('',#132,.T.);
#134=ADVANCED_FACE('',(#133),#122,.F.);
#135=CARTESIAN_POINT('',(-346.802697030367140,-11.699971472760362,3.500000000000000));
#136=DIRECTION('',(0.0,0.0,1.0));
#137=DIRECTION('',(1.0,0.0,0.0));
#138=AXIS2_PLACEMENT_3D('',#135,#136,#137);
#139=CYLINDRICAL_SURFACE('',#138,2.067000000000000);
#140=CARTESIAN_POINT('',(-344.735697030367190,-11.699971472760362,0.0));
#141=VERTEX_POINT('',#140);
#142=CARTESIAN_POINT('',(-346.802697030367140,-11.699971472760362,0.0));
#143=DIRECTION('',(0.0,0.0,1.0));
#144=DIRECTION('',(1.0,0.0,0.0));
#145=AXIS2_PLACEMENT_3D('',#142,#143,#144);
#146=CIRCLE('',#145,2.067000000000000);
#147=EDGE_CURVE('',#141,#141,#146,.T.);
#148=ORIENTED_EDGE('',*,*,#147,.F.);
#149=EDGE_LOOP('',(#148));
#150=FACE_OUTER_BOUND('',#149,.T.);
#151=ORIENTED_EDGE('',*,*,#130,.T.);
#152=EDGE_LOOP('',(#151));
#153=FACE_BOUND('',#152,.T.);
#154=ADVANCED_FACE('',(#150,#153),#139,.F.);
#155=CARTESIAN_POINT('',(0.0,0.0,0.0));
#156=DIRECTION('',(0.0,0.0,1.0));
#157=DIRECTION('',(-0.987369355879382,0.158435334033587,0.0));
#158=AXIS2_PLACEMENT_3D('',#155,#156,#157);
#159=CYLINDRICAL_SURFACE('',#158,356.999999999999940);
#160=CARTESIAN_POINT('',(-338.601812580017620,-113.127417178713870,9.0));
#161=VERTEX_POINT('',#160);
#162=CARTESIAN_POINT('',(-352.490860048939230,56.561414249990491,9.0));
#163=VERTEX_POINT('',#162);
#164=CARTESIAN_POINT('',(0.0,0.0,9.0));
#165=DIRECTION('',(0.0,0.0,-1.0));
#166=DIRECTION('',(-0.987369355879382,0.158435334033587,0.0));
#167=AXIS2_PLACEMENT_3D('',#164,#165,#166);
#168=CIRCLE('',#167,356.999999999999940);
#169=EDGE_CURVE('',#161,#163,#168,.T.);
#170=ORIENTED_EDGE('',*,*,#169,.T.);
#171=CARTESIAN_POINT('',(-352.490860048939230,56.561414249990491,0.0));
#172=VERTEX_POINT('',#171);
#173=CARTESIAN_POINT('',(-352.490860048939230,56.561414249990491,0.0));
#174=DIRECTION('',(0.0,0.0,1.0));
#175=VECTOR('',#174,9.0);
#176=LINE('',#173,#175);
#177=EDGE_CURVE('',#172,#163,#176,.T.);
#178=ORIENTED_EDGE('',*,*,#177,.F.);
#179=CARTESIAN_POINT('',(-338.601812580017620,-113.127417178713870,0.0));
#180=VERTEX_POINT('',#179);
#181=CARTESIAN_POINT('',(0.0,0.0,0.0));
#182=DIRECTION('',(0.0,0.0,1.0));
#183=DIRECTION('',(-0.987369355879382,0.158435334033587,0.0));
#184=AXIS2_PLACEMENT_3D('',#181,#182,#183);
#185=CIRCLE('',#184,356.999999999999940);
#186=EDGE_CURVE('',#172,#180,#185,.T.);
#187=ORIENTED_EDGE('',*,*,#186,.T.);
#188=CARTESIAN_POINT('',(-338.601812580017620,-113.127417178713870,0.0));
#189=DIRECTION('',(0.0,0.0,1.0));
#190=VECTOR('',#189,9.0);
#191=LINE('',#188,#190);
#192=EDGE_CURVE('',#180,#161,#191,.T.);
#193=ORIENTED_EDGE('',*,*,#192,.T.);
#194=EDGE_LOOP('',(#170,#178,#187,#193));
#195=FACE_OUTER_BOUND('',#194,.T.);
#196=ADVANCED_FACE('',(#195),#159,.T.);
#197=CARTESIAN_POINT('',(2.761680E-013,-1503.615000000000000,0.0));
#198=DIRECTION('',(0.0,0.0,1.0));
#199=DIRECTION('',(-0.220040425239304,0.975490754062029,0.0));
#200=AXIS2_PLACEMENT_3D('',#197,#198,#199);
#201=CYLINDRICAL_SURFACE('',#200,1599.500000000000000);
#202=CARTESIAN_POINT('',(-351.954660170267230,56.682461122215386,9.0));
#203=VERTEX_POINT('',#202);
#204=CARTESIAN_POINT('',(2.761680E-013,-1503.615000000000000,9.0));
#205=DIRECTION('',(0.0,0.0,-1.0));
#206=DIRECTION('',(-0.220040425239304,0.975490754062029,0.0));
#207=AXIS2_PLACEMENT_3D('',#204,#205,#206);
#208=CIRCLE('',#207,1599.500000000000000);
#209=EDGE_CURVE('',#163,#203,#208,.T.);
#210=ORIENTED_EDGE('',*,*,#209,.T.);
#211=CARTESIAN_POINT('',(-351.954660170267230,56.682461122215386,0.0));
#212=VERTEX_POINT('',#211);
#213=CARTESIAN_POINT('',(-351.954660170267230,56.682461122215386,0.0));
#214=DIRECTION('',(0.0,0.0,1.0));
#215=VECTOR('',#214,9.0);
#216=LINE('',#213,#215);
#217=EDGE_CURVE('',#212,#203,#216,.T.);
#218=ORIENTED_EDGE('',*,*,#217,.F.);
#219=CARTESIAN_POINT('',(2.761680E-013,-1503.615000000000000,0.0));
#220=DIRECTION('',(0.0,0.0,1.0));
#221=DIRECTION('',(-0.220040425239304,0.975490754062029,0.0));
#222=AXIS2_PLACEMENT_3D('',#219,#220,#221);
#223=CIRCLE('',#222,1599.500000000000000);
#224=EDGE_CURVE('',#212,#172,#223,.T.);
#225=ORIENTED_EDGE('',*,*,#224,.T.);
#226=ORIENTED_EDGE('',*,*,#177,.T.);
#227=EDGE_LOOP('',(#210,#218,#225,#226));
#228=FACE_OUTER_BOUND('',#227,.T.);
#229=ADVANCED_FACE('',(#228),#201,.T.);
#230=CARTESIAN_POINT('',(-351.954660170267230,56.682461122215386,0.0));
#231=DIRECTION('',(0.975559490528787,0.219735478335234,0.0));
#232=DIRECTION('',(0.0,0.0,-1.0));
#233=AXIS2_PLACEMENT_3D('',#230,#231,#232);
#234=PLANE('',#233);
#235=CARTESIAN_POINT('',(-314.824327026414840,-108.165059903580540,9.0));
#236=VERTEX_POINT('',#235);
#237=CARTESIAN_POINT('',(-351.954660170267230,56.682461122215386,9.0));
#238=DIRECTION('',(0.219735478335234,-0.975559490528787,0.0));
#239=VECTOR('',#238,168.977415140969900);
#240=LINE('',#237,#239);
#241=EDGE_CURVE('',#203,#236,#240,.T.);
#242=ORIENTED_EDGE('',*,*,#241,.T.);
#243=CARTESIAN_POINT('',(-314.824327026414840,-108.165059903580540,0.0));
#244=VERTEX_POINT('',#243);
#245=CARTESIAN_POINT('',(-314.824327026414840,-108.165059903580540,0.0));
#246=DIRECTION('',(0.0,0.0,1.0));
#247=VECTOR('',#246,9.0);
#248=LINE('',#245,#247);
#249=EDGE_CURVE('',#244,#236,#248,.T.);
#250=ORIENTED_EDGE('',*,*,#249,.F.);
#251=CARTESIAN_POINT('',(-314.824327026414840,-108.165059903580540,0.0));
#252=DIRECTION('',(-0.219735478335234,0.975559490528787,0.0));
#253=VECTOR('',#252,168.977415140969900);
#254=LINE('',#251,#253);
#255=EDGE_CURVE('',#244,#212,#254,.T.);
#256=ORIENTED_EDGE('',*,*,#255,.T.);
#257=ORIENTED_EDGE('',*,*,#217,.T.);
#258=EDGE_LOOP('',(#242,#250,#256,#257));
#259=FACE_OUTER_BOUND('',#258,.T.);
#260=ADVANCED_FACE('',(#259),#234,.T.);
#261=CARTESIAN_POINT('',(3.079481E-013,-1676.115000000000000,0.0));
#262=DIRECTION('',(0.0,0.0,1.0));
#263=DIRECTION('',(0.196858219900412,-0.980431966664511,0.0));
#264=AXIS2_PLACEMENT_3D('',#261,#262,#263);
#265=CYLINDRICAL_SURFACE('',#264,1599.244000000000400);
#266=CARTESIAN_POINT('',(3.079481E-013,-1676.115000000000000,9.0));
#267=DIRECTION('',(0.0,0.0,1.0));
#268=DIRECTION('',(0.196858219900412,-0.980431966664511,0.0));
#269=AXIS2_PLACEMENT_3D('',#266,#267,#268);
#270=CIRCLE('',#269,1599.244000000000400);
#271=EDGE_CURVE('',#236,#161,#270,.T.);
#272=ORIENTED_EDGE('',*,*,#271,.T.);
#273=ORIENTED_EDGE('',*,*,#192,.F.);
#274=CARTESIAN_POINT('',(3.079481E-013,-1676.115000000000000,0.0));
#275=DIRECTION('',(0.0,0.0,-1.0));
#276=DIRECTION('',(0.196858219900412,-0.980431966664511,0.0));
#277=AXIS2_PLACEMENT_3D('',#274,#275,#276);
#278=CIRCLE('',#277,1599.244000000000400);
#279=EDGE_CURVE('',#180,#244,#278,.T.);
#280=ORIENTED_EDGE('',*,*,#279,.T.);
#281=ORIENTED_EDGE('',*,*,#249,.T.);
#282=EDGE_LOOP('',(#272,#273,#280,#281));
#283=FACE_OUTER_BOUND('',#282,.T.);
#284=ADVANCED_FACE('',(#283),#265,.F.);
#285=CARTESIAN_POINT('',(-341.794887817175440,-32.697774557237288,0.0));
#286=DIRECTION('',(0.0,0.0,1.0));
#287=DIRECTION('',(1.0,0.0,0.0));
#288=AXIS2_PLACEMENT_3D('',#285,#286,#287);
#289=PLANE('',#288);
#290=ORIENTED_EDGE('',*,*,#186,.F.);
#291=ORIENTED_EDGE('',*,*,#224,.F.);
#292=ORIENTED_EDGE('',*,*,#255,.F.);
#293=ORIENTED_EDGE('',*,*,#279,.F.);
#294=EDGE_LOOP('',(#290,#291,#292,#293));
#295=FACE_OUTER_BOUND('',#294,.T.);
#296=ORIENTED_EDGE('',*,*,#73,.T.);
#297=EDGE_LOOP('',(#296));
#298=FACE_BOUND('',#297,.T.);
#299=ORIENTED_EDGE('',*,*,#110,.T.);
#300=EDGE_LOOP('',(#299));
#301=FACE_BOUND('',#300,.T.);
#302=ORIENTED_EDGE('',*,*,#147,.T.);
#303=EDGE_LOOP('',(#302));
#304=FACE_BOUND('',#303,.T.);
#305=ADVANCED_FACE('',(#295,#298,#301,#304),#289,.F.);
#306=CARTESIAN_POINT('',(-341.794887817175380,-32.697774557237281,9.0));
#307=DIRECTION('',(0.0,0.0,1.0));
#308=DIRECTION('',(1.0,0.0,0.0));
#309=AXIS2_PLACEMENT_3D('',#306,#307,#308);
#310=PLANE('',#309);
#311=ORIENTED_EDGE('',*,*,#169,.F.);
#312=ORIENTED_EDGE('',*,*,#271,.F.);
#313=ORIENTED_EDGE('',*,*,#241,.F.);
#314=ORIENTED_EDGE('',*,*,#209,.F.);
#315=EDGE_LOOP('',(#311,#312,#313,#314));
#316=FACE_OUTER_BOUND('',#315,.T.);
#317=ADVANCED_FACE('',(#316),#310,.T.);
#318=CLOSED_SHELL('',(#60,#80,#97,#117,#134,#154,#196,#229,#260,#284,#305,#317));
#319=MANIFOLD_SOLID_BREP('',#318);
#320=COLOUR_RGB('Gold Metallic',0.678430974483490,0.533333003520966,0.094117596745491);
#321=FILL_AREA_STYLE_COLOUR('Gold Metallic',#320);
#322=FILL_AREA_STYLE('Gold Metallic',(#321));
#323=SURFACE_STYLE_FILL_AREA(#322);
#324=SURFACE_SIDE_STYLE('Gold Metallic',(#323));
#325=SURFACE_STYLE_USAGE(.BOTH.,#324);
#326=PRESENTATION_STYLE_ASSIGNMENT((#325));
#327=STYLED_ITEM('',(#326),#319);
#328=MECHANICAL_DESIGN_GEOMETRIC_PRESENTATION_REPRESENTATION('',(#327),#36);
#329=ADVANCED_BREP_SHAPE_REPRESENTATION('ABSR',(#319),#36);
#330=SHAPE_REPRESENTATION_RELATIONSHIP('SRR','None',#329,#41);
ENDSEC;
END-ISO-10303-21;
