ISO-10303-21;
HEADER;
/****************************************************************
 * Generated by software with PDE/Lib inside                    *
 * PDElib Version v51a, created Tue 12/06/2005                  *
 * International Technegroup Inc. (www.iti-oh.com)              *
 ****************************************************************/
FILE_DESCRIPTION((''),'2;1');
FILE_NAME('\\\\pc50\\users\\dpp\\DraftingIncoming\\6080-136 FieldCageTermination Plate-6.stp','2008-02-21T14:53:14',('mds'),(''),'Autodesk Inventor 11','Autodesk Inventor 11','');
FILE_SCHEMA(('AUTOMOTIVE_DESIGN { 1 0 10303 214 1 1 1 1 }'));
ENDSEC;
DATA;
#5=APPLICATION_CONTEXT('automotive design');
#6=APPLICATION_PROTOCOL_DEFINITION('International Standard','automotive_design',2001,#5);
#7=PRODUCT_CONTEXT('',#5,'mechanical');
#8=PRODUCT('6080-136 FieldCageTermination Plate-6','6080-136 FieldCageTermination Plate-6',$,(#7));
#9=PRODUCT_RELATED_PRODUCT_CATEGORY('part',$,(#8));
#10=PRODUCT_DEFINITION_FORMATION('',$,#8);
#11=PRODUCT_DEFINITION_CONTEXT('part definition',#5,'design');
#12=PRODUCT_DEFINITION('',$,#10,#11);
#18=(NAMED_UNIT(*)PLANE_ANGLE_UNIT()SI_UNIT($,.RADIAN.));
#19=DIMENSIONAL_EXPONENTS(0.0,0.0,0.0,0.0,0.0,0.0,0.0);
#20=PLANE_ANGLE_MEASURE_WITH_UNIT(PLANE_ANGLE_MEASURE(0.017453292500000),#18);
#24=(CONVERSION_BASED_UNIT('DEGREE',#20)NAMED_UNIT(#19)PLANE_ANGLE_UNIT());
#28=(NAMED_UNIT(*)SI_UNIT($,.STERADIAN.)SOLID_ANGLE_UNIT());
#32=(LENGTH_UNIT()NAMED_UNIT(*)SI_UNIT(.MILLI.,.METRE.));
#34=UNCERTAINTY_MEASURE_WITH_UNIT(LENGTH_MEASURE(0.010000000000000),#32,'DISTANCE_ACCURACY_VALUE','');
#36=(GEOMETRIC_REPRESENTATION_CONTEXT(3)GLOBAL_UNCERTAINTY_ASSIGNED_CONTEXT((#34))GLOBAL_UNIT_ASSIGNED_CONTEXT((#24,#28,#32))REPRESENTATION_CONTEXT('None','None'));
#37=AXIS2_PLACEMENT_3D('',#38,#39,#40);
#38=CARTESIAN_POINT('',(0.0,0.0,0.0));
#39=DIRECTION('',(0.0,0.0,1.0));
#40=DIRECTION('',(1.0,0.0,0.0));
#41=SHAPE_REPRESENTATION('',(#37),#36);
#42=PRODUCT_DEFINITION_SHAPE('','',#12);
#43=SHAPE_DEFINITION_REPRESENTATION(#42,#41);
#44=CARTESIAN_POINT('',(-325.038416726115710,-121.486738585657990,7.620989449764984));
#45=DIRECTION('',(0.0,0.0,-1.0));
#46=DIRECTION('',(1.0,0.0,0.0));
#47=AXIS2_PLACEMENT_3D('',#44,#45,#46);
#48=CONICAL_SURFACE('',#47,1.033500000000000,59.000000000000007);
#49=CARTESIAN_POINT('',(-322.971416726115760,-121.486738585657990,7.000000000000001));
#50=VERTEX_POINT('',#49);
#51=CARTESIAN_POINT('',(-325.038416726115710,-121.486738585657990,7.000000000000001));
#52=DIRECTION('',(0.0,0.0,1.0));
#53=DIRECTION('',(1.0,0.0,0.0));
#54=AXIS2_PLACEMENT_3D('',#51,#52,#53);
#55=CIRCLE('',#54,2.067000000000000);
#56=EDGE_CURVE('',#50,#50,#55,.T.);
#57=ORIENTED_EDGE('',*,*,#56,.F.);
#58=EDGE_LOOP('',(#57));
#59=FACE_OUTER_BOUND('',#58,.T.);
#60=ADVANCED_FACE('',(#59),#48,.F.);
#61=CARTESIAN_POINT('',(-325.038416726115710,-121.486738585657990,3.500000000000000));
#62=DIRECTION('',(0.0,0.0,1.0));
#63=DIRECTION('',(1.0,0.0,0.0));
#64=AXIS2_PLACEMENT_3D('',#61,#62,#63);
#65=CYLINDRICAL_SURFACE('',#64,2.067000000000000);
#66=CARTESIAN_POINT('',(-322.971416726115760,-121.486738585657990,0.0));
#67=VERTEX_POINT('',#66);
#68=CARTESIAN_POINT('',(-325.038416726115710,-121.486738585657990,0.0));
#69=DIRECTION('',(0.0,0.0,1.0));
#70=DIRECTION('',(1.0,0.0,0.0));
#71=AXIS2_PLACEMENT_3D('',#68,#69,#70);
#72=CIRCLE('',#71,2.067000000000000);
#73=EDGE_CURVE('',#67,#67,#72,.T.);
#74=ORIENTED_EDGE('',*,*,#73,.F.);
#75=EDGE_LOOP('',(#74));
#76=FACE_OUTER_BOUND('',#75,.T.);
#77=ORIENTED_EDGE('',*,*,#56,.T.);
#78=EDGE_LOOP('',(#77));
#79=FACE_BOUND('',#78,.T.);
#80=ADVANCED_FACE('',(#76,#79),#65,.F.);
#81=CARTESIAN_POINT('',(-235.309615949445030,-255.026243045151320,7.620989449764984));
#82=DIRECTION('',(0.0,0.0,-1.0));
#83=DIRECTION('',(1.0,0.0,0.0));
#84=AXIS2_PLACEMENT_3D('',#81,#82,#83);
#85=CONICAL_SURFACE('',#84,1.033500000000000,59.000000000000007);
#86=CARTESIAN_POINT('',(-233.242615949445020,-255.026243045151320,7.000000000000001));
#87=VERTEX_POINT('',#86);
#88=CARTESIAN_POINT('',(-235.309615949445030,-255.026243045151320,7.000000000000001));
#89=DIRECTION('',(0.0,0.0,1.0));
#90=DIRECTION('',(1.0,0.0,0.0));
#91=AXIS2_PLACEMENT_3D('',#88,#89,#90);
#92=CIRCLE('',#91,2.067000000000000);
#93=EDGE_CURVE('',#87,#87,#92,.T.);
#94=ORIENTED_EDGE('',*,*,#93,.F.);
#95=EDGE_LOOP('',(#94));
#96=FACE_OUTER_BOUND('',#95,.T.);
#97=ADVANCED_FACE('',(#96),#85,.F.);
#98=CARTESIAN_POINT('',(-235.309615949445030,-255.026243045151320,3.500000000000000));
#99=DIRECTION('',(0.0,0.0,1.0));
#100=DIRECTION('',(1.0,0.0,0.0));
#101=AXIS2_PLACEMENT_3D('',#98,#99,#100);
#102=CYLINDRICAL_SURFACE('',#101,2.067000000000000);
#103=CARTESIAN_POINT('',(-233.242615949445020,-255.026243045151320,0.0));
#104=VERTEX_POINT('',#103);
#105=CARTESIAN_POINT('',(-235.309615949445030,-255.026243045151320,0.0));
#106=DIRECTION('',(0.0,0.0,1.0));
#107=DIRECTION('',(1.0,0.0,0.0));
#108=AXIS2_PLACEMENT_3D('',#105,#106,#107);
#109=CIRCLE('',#108,2.067000000000000);
#110=EDGE_CURVE('',#104,#104,#109,.T.);
#111=ORIENTED_EDGE('',*,*,#110,.F.);
#112=EDGE_LOOP('',(#111));
#113=FACE_OUTER_BOUND('',#112,.T.);
#114=ORIENTED_EDGE('',*,*,#93,.T.);
#115=EDGE_LOOP('',(#114));
#116=FACE_BOUND('',#115,.T.);
#117=ADVANCED_FACE('',(#113,#116),#102,.F.);
#118=CARTESIAN_POINT('',(-190.696099024303460,-249.072825247821300,7.620989449764984));
#119=DIRECTION('',(0.0,0.0,-1.0));
#120=DIRECTION('',(1.0,0.0,0.0));
#121=AXIS2_PLACEMENT_3D('',#118,#119,#120);
#122=CONICAL_SURFACE('',#121,1.033500000000000,59.000000000000007);
#123=CARTESIAN_POINT('',(-188.629099024303460,-249.072825247821300,7.000000000000001));
#124=VERTEX_POINT('',#123);
#125=CARTESIAN_POINT('',(-190.696099024303460,-249.072825247821300,7.000000000000001));
#126=DIRECTION('',(0.0,0.0,1.0));
#127=DIRECTION('',(1.0,0.0,0.0));
#128=AXIS2_PLACEMENT_3D('',#125,#126,#127);
#129=CIRCLE('',#128,2.067000000000000);
#130=EDGE_CURVE('',#124,#124,#129,.T.);
#131=ORIENTED_EDGE('',*,*,#130,.F.);
#132=EDGE_LOOP('',(#131));
#133=FACE_OUTER_BOUND('',#132,.T.);
#134=ADVANCED_FACE('',(#133),#122,.F.);
#135=CARTESIAN_POINT('',(-190.696099024303460,-249.072825247821300,3.500000000000000));
#136=DIRECTION('',(0.0,0.0,1.0));
#137=DIRECTION('',(1.0,0.0,0.0));
#138=AXIS2_PLACEMENT_3D('',#135,#136,#137);
#139=CYLINDRICAL_SURFACE('',#138,2.067000000000000);
#140=CARTESIAN_POINT('',(-188.629099024303460,-249.072825247821300,0.0));
#141=VERTEX_POINT('',#140);
#142=CARTESIAN_POINT('',(-190.696099024303460,-249.072825247821300,0.0));
#143=DIRECTION('',(0.0,0.0,1.0));
#144=DIRECTION('',(1.0,0.0,0.0));
#145=AXIS2_PLACEMENT_3D('',#142,#143,#144);
#146=CIRCLE('',#145,2.067000000000000);
#147=EDGE_CURVE('',#141,#141,#146,.T.);
#148=ORIENTED_EDGE('',*,*,#147,.F.);
#149=EDGE_LOOP('',(#148));
#150=FACE_OUTER_BOUND('',#149,.T.);
#151=ORIENTED_EDGE('',*,*,#130,.T.);
#152=EDGE_LOOP('',(#151));
#153=FACE_BOUND('',#152,.T.);
#154=ADVANCED_FACE('',(#150,#153),#139,.F.);
#155=CARTESIAN_POINT('',(-209.293915812311580,-101.721446805644220,7.620989449764984));
#156=DIRECTION('',(0.0,0.0,-1.0));
#157=DIRECTION('',(1.0,0.0,0.0));
#158=AXIS2_PLACEMENT_3D('',#155,#156,#157);
#159=CONICAL_SURFACE('',#158,1.033500000000000,59.000000000000007);
#160=CARTESIAN_POINT('',(-207.226915812311570,-101.721446805644220,7.000000000000001));
#161=VERTEX_POINT('',#160);
#162=CARTESIAN_POINT('',(-209.293915812311580,-101.721446805644220,7.000000000000001));
#163=DIRECTION('',(0.0,0.0,1.0));
#164=DIRECTION('',(1.0,0.0,0.0));
#165=AXIS2_PLACEMENT_3D('',#162,#163,#164);
#166=CIRCLE('',#165,2.067000000000000);
#167=EDGE_CURVE('',#161,#161,#166,.T.);
#168=ORIENTED_EDGE('',*,*,#167,.F.);
#169=EDGE_LOOP('',(#168));
#170=FACE_OUTER_BOUND('',#169,.T.);
#171=ADVANCED_FACE('',(#170),#159,.F.);
#172=CARTESIAN_POINT('',(-209.293915812311580,-101.721446805644220,3.500000000000000));
#173=DIRECTION('',(0.0,0.0,1.0));
#174=DIRECTION('',(1.0,0.0,0.0));
#175=AXIS2_PLACEMENT_3D('',#172,#173,#174);
#176=CYLINDRICAL_SURFACE('',#175,2.067000000000000);
#177=CARTESIAN_POINT('',(-207.226915812311570,-101.721446805644220,0.0));
#178=VERTEX_POINT('',#177);
#179=CARTESIAN_POINT('',(-209.293915812311580,-101.721446805644220,0.0));
#180=DIRECTION('',(0.0,0.0,1.0));
#181=DIRECTION('',(1.0,0.0,0.0));
#182=AXIS2_PLACEMENT_3D('',#179,#180,#181);
#183=CIRCLE('',#182,2.067000000000000);
#184=EDGE_CURVE('',#178,#178,#183,.T.);
#185=ORIENTED_EDGE('',*,*,#184,.F.);
#186=EDGE_LOOP('',(#185));
#187=FACE_OUTER_BOUND('',#186,.T.);
#188=ORIENTED_EDGE('',*,*,#167,.T.);
#189=EDGE_LOOP('',(#188));
#190=FACE_BOUND('',#189,.T.);
#191=ADVANCED_FACE('',(#187,#190),#176,.F.);
#192=CARTESIAN_POINT('',(-200.629169300140060,-90.513593604957919,0.0));
#193=DIRECTION('',(0.992128920429808,0.125220626283305,0.0));
#194=DIRECTION('',(0.0,0.0,-1.0));
#195=AXIS2_PLACEMENT_3D('',#192,#193,#194);
#196=PLANE('',#195);
#197=CARTESIAN_POINT('',(-200.629169300140060,-90.513593604957919,9.0));
#198=VERTEX_POINT('',#197);
#199=CARTESIAN_POINT('',(-179.510012802058550,-257.841665335128310,9.0));
#200=VERTEX_POINT('',#199);
#201=CARTESIAN_POINT('',(-200.629169300140060,-90.513593604957919,9.0));
#202=DIRECTION('',(0.125220626283305,-0.992128920429808,0.0));
#203=VECTOR('',#202,168.655573166520380);
#204=LINE('',#201,#203);
#205=EDGE_CURVE('',#198,#200,#204,.T.);
#206=ORIENTED_EDGE('',*,*,#205,.T.);
#207=CARTESIAN_POINT('',(-179.510012802058550,-257.841665335128310,0.0));
#208=VERTEX_POINT('',#207);
#209=CARTESIAN_POINT('',(-179.510012802058550,-257.841665335128310,0.0));
#210=DIRECTION('',(0.0,0.0,1.0));
#211=VECTOR('',#210,9.0);
#212=LINE('',#209,#211);
#213=EDGE_CURVE('',#208,#200,#212,.T.);
#214=ORIENTED_EDGE('',*,*,#213,.F.);
#215=CARTESIAN_POINT('',(-200.629169300140060,-90.513593604957919,0.0));
#216=VERTEX_POINT('',#215);
#217=CARTESIAN_POINT('',(-200.629169300140060,-90.513593604957919,0.0));
#218=DIRECTION('',(0.125220626283305,-0.992128920429808,0.0));
#219=VECTOR('',#218,168.655573166520380);
#220=LINE('',#217,#219);
#221=EDGE_CURVE('',#216,#208,#220,.T.);
#222=ORIENTED_EDGE('',*,*,#221,.F.);
#223=CARTESIAN_POINT('',(-200.629169300140060,-90.513593604957919,0.0));
#224=DIRECTION('',(0.0,0.0,1.0));
#225=VECTOR('',#224,9.0);
#226=LINE('',#223,#225);
#227=EDGE_CURVE('',#216,#198,#226,.T.);
#228=ORIENTED_EDGE('',*,*,#227,.T.);
#229=EDGE_LOOP('',(#206,#214,#222,#228));
#230=FACE_OUTER_BOUND('',#229,.T.);
#231=ADVANCED_FACE('',(#230),#196,.T.);
#232=CARTESIAN_POINT('',(1.132427E-013,-1848.242999999999900,0.0));
#233=DIRECTION('',(0.0,0.0,1.0));
#234=DIRECTION('',(-0.112158708404910,0.993690305944937,0.0));
#235=AXIS2_PLACEMENT_3D('',#232,#233,#234);
#236=CYLINDRICAL_SURFACE('',#235,1600.500000000000200);
#237=CARTESIAN_POINT('',(-238.529675155391660,-265.617382846573610,9.0));
#238=VERTEX_POINT('',#237);
#239=CARTESIAN_POINT('',(1.132427E-013,-1848.242999999999900,9.0));
#240=DIRECTION('',(0.0,0.0,1.000000000000000));
#241=DIRECTION('',(-0.112158708404910,0.993690305944937,0.0));
#242=AXIS2_PLACEMENT_3D('',#239,#240,#241);
#243=CIRCLE('',#242,1600.500000000000000);
#244=EDGE_CURVE('',#200,#238,#243,.T.);
#245=ORIENTED_EDGE('',*,*,#244,.T.);
#246=CARTESIAN_POINT('',(-238.529675155391660,-265.617382846573610,0.0));
#247=VERTEX_POINT('',#246);
#248=CARTESIAN_POINT('',(-238.529675155391660,-265.617382846573610,0.0));
#249=DIRECTION('',(0.0,0.0,1.0));
#250=VECTOR('',#249,9.0);
#251=LINE('',#248,#250);
#252=EDGE_CURVE('',#247,#238,#251,.T.);
#253=ORIENTED_EDGE('',*,*,#252,.F.);
#254=CARTESIAN_POINT('',(1.132427E-013,-1848.242999999999900,0.0));
#255=DIRECTION('',(0.0,0.0,1.000000000000000));
#256=DIRECTION('',(-0.112158708404910,0.993690305944937,0.0));
#257=AXIS2_PLACEMENT_3D('',#254,#255,#256);
#258=CIRCLE('',#257,1600.500000000000000);
#259=EDGE_CURVE('',#208,#247,#258,.T.);
#260=ORIENTED_EDGE('',*,*,#259,.F.);
#261=ORIENTED_EDGE('',*,*,#213,.T.);
#262=EDGE_LOOP('',(#245,#253,#260,#261));
#263=FACE_OUTER_BOUND('',#262,.T.);
#264=ADVANCED_FACE('',(#263),#236,.F.);
#265=CARTESIAN_POINT('',(0.0,0.0,0.0));
#266=DIRECTION('',(0.0,0.0,1.0));
#267=DIRECTION('',(0.947567614940210,0.319555339677687,0.0));
#268=AXIS2_PLACEMENT_3D('',#265,#266,#267);
#269=CYLINDRICAL_SURFACE('',#268,356.999999999999940);
#270=CARTESIAN_POINT('',(-338.281638533655100,-114.081256264934230,9.0));
#271=VERTEX_POINT('',#270);
#272=CARTESIAN_POINT('',(0.0,0.0,9.0));
#273=DIRECTION('',(0.0,0.0,-1.000000000000000));
#274=DIRECTION('',(0.947567614940210,0.319555339677687,0.0));
#275=AXIS2_PLACEMENT_3D('',#272,#273,#274);
#276=CIRCLE('',#275,356.999999999999890);
#277=EDGE_CURVE('',#238,#271,#276,.T.);
#278=ORIENTED_EDGE('',*,*,#277,.T.);
#279=CARTESIAN_POINT('',(-338.281638533655100,-114.081256264934230,0.0));
#280=VERTEX_POINT('',#279);
#281=CARTESIAN_POINT('',(-338.281638533655100,-114.081256264934230,0.0));
#282=DIRECTION('',(0.0,0.0,1.0));
#283=VECTOR('',#282,9.0);
#284=LINE('',#281,#283);
#285=EDGE_CURVE('',#280,#271,#284,.T.);
#286=ORIENTED_EDGE('',*,*,#285,.F.);
#287=CARTESIAN_POINT('',(0.0,0.0,0.0));
#288=DIRECTION('',(0.0,0.0,-1.000000000000000));
#289=DIRECTION('',(0.947567614940210,0.319555339677687,0.0));
#290=AXIS2_PLACEMENT_3D('',#287,#288,#289);
#291=CIRCLE('',#290,356.999999999999890);
#292=EDGE_CURVE('',#247,#280,#291,.T.);
#293=ORIENTED_EDGE('',*,*,#292,.F.);
#294=ORIENTED_EDGE('',*,*,#252,.T.);
#295=EDGE_LOOP('',(#278,#286,#293,#294));
#296=FACE_OUTER_BOUND('',#295,.T.);
#297=ADVANCED_FACE('',(#296),#269,.T.);
#298=CARTESIAN_POINT('',(6.823150E-014,-1676.115000000000000,0.0));
#299=DIRECTION('',(0.0,0.0,1.0));
#300=DIRECTION('',(0.125531001086280,-0.992089697439842,0.0));
#301=AXIS2_PLACEMENT_3D('',#298,#299,#300);
#302=CYLINDRICAL_SURFACE('',#301,1598.243999999999900);
#303=CARTESIAN_POINT('',(6.823150E-014,-1676.115000000000000,9.0));
#304=DIRECTION('',(0.0,0.0,-1.000000000000000));
#305=DIRECTION('',(0.125531001086280,-0.992089697439842,0.0));
#306=AXIS2_PLACEMENT_3D('',#303,#304,#305);
#307=CIRCLE('',#306,1598.243999999999900);
#308=EDGE_CURVE('',#271,#198,#307,.T.);
#309=ORIENTED_EDGE('',*,*,#308,.T.);
#310=ORIENTED_EDGE('',*,*,#227,.F.);
#311=CARTESIAN_POINT('',(6.823150E-014,-1676.115000000000000,0.0));
#312=DIRECTION('',(0.0,0.0,-1.000000000000000));
#313=DIRECTION('',(0.125531001086280,-0.992089697439842,0.0));
#314=AXIS2_PLACEMENT_3D('',#311,#312,#313);
#315=CIRCLE('',#314,1598.243999999999900);
#316=EDGE_CURVE('',#280,#216,#315,.T.);
#317=ORIENTED_EDGE('',*,*,#316,.F.);
#318=ORIENTED_EDGE('',*,*,#285,.T.);
#319=EDGE_LOOP('',(#309,#310,#317,#318));
#320=FACE_OUTER_BOUND('',#319,.T.);
#321=ADVANCED_FACE('',(#320),#302,.T.);
#322=CARTESIAN_POINT('',(-246.942488448067620,-171.670324522232280,9.0));
#323=DIRECTION('',(0.0,0.0,1.0));
#324=DIRECTION('',(1.0,0.0,0.0));
#325=AXIS2_PLACEMENT_3D('',#322,#323,#324);
#326=PLANE('',#325);
#327=ORIENTED_EDGE('',*,*,#205,.F.);
#328=ORIENTED_EDGE('',*,*,#308,.F.);
#329=ORIENTED_EDGE('',*,*,#277,.F.);
#330=ORIENTED_EDGE('',*,*,#244,.F.);
#331=EDGE_LOOP('',(#327,#328,#329,#330));
#332=FACE_OUTER_BOUND('',#331,.T.);
#333=ADVANCED_FACE('',(#332),#326,.T.);
#334=CARTESIAN_POINT('',(-246.942488448067650,-171.670324522232310,0.0));
#335=DIRECTION('',(0.0,0.0,1.0));
#336=DIRECTION('',(1.0,0.0,0.0));
#337=AXIS2_PLACEMENT_3D('',#334,#335,#336);
#338=PLANE('',#337);
#339=ORIENTED_EDGE('',*,*,#316,.T.);
#340=ORIENTED_EDGE('',*,*,#221,.T.);
#341=ORIENTED_EDGE('',*,*,#259,.T.);
#342=ORIENTED_EDGE('',*,*,#292,.T.);
#343=EDGE_LOOP('',(#339,#340,#341,#342));
#344=FACE_OUTER_BOUND('',#343,.T.);
#345=ORIENTED_EDGE('',*,*,#73,.T.);
#346=EDGE_LOOP('',(#345));
#347=FACE_BOUND('',#346,.T.);
#348=ORIENTED_EDGE('',*,*,#110,.T.);
#349=EDGE_LOOP('',(#348));
#350=FACE_BOUND('',#349,.T.);
#351=ORIENTED_EDGE('',*,*,#147,.T.);
#352=EDGE_LOOP('',(#351));
#353=FACE_BOUND('',#352,.T.);
#354=ORIENTED_EDGE('',*,*,#184,.T.);
#355=EDGE_LOOP('',(#354));
#356=FACE_BOUND('',#355,.T.);
#357=ADVANCED_FACE('',(#344,#347,#350,#353,#356),#338,.F.);
#358=CLOSED_SHELL('',(#60,#80,#97,#117,#134,#154,#171,#191,#231,#264,#297,#321,#333,#357));
#359=MANIFOLD_SOLID_BREP('',#358);
#360=COLOUR_RGB('Gold Metallic',0.678430974483490,0.533333003520966,0.094117596745491);
#361=FILL_AREA_STYLE_COLOUR('Gold Metallic',#360);
#362=FILL_AREA_STYLE('Gold Metallic',(#361));
#363=SURFACE_STYLE_FILL_AREA(#362);
#364=SURFACE_SIDE_STYLE('Gold Metallic',(#363));
#365=SURFACE_STYLE_USAGE(.BOTH.,#364);
#366=PRESENTATION_STYLE_ASSIGNMENT((#365));
#367=STYLED_ITEM('',(#366),#359);
#368=MECHANICAL_DESIGN_GEOMETRIC_PRESENTATION_REPRESENTATION('',(#367),#36);
#369=ADVANCED_BREP_SHAPE_REPRESENTATION('ABSR',(#359),#36);
#370=SHAPE_REPRESENTATION_RELATIONSHIP('SRR','None',#369,#41);
ENDSEC;
END-ISO-10303-21;
