ISO-10303-21;
HEADER;
/****************************************************************
 * Generated by software with PDE/Lib inside                    *
 * PDElib Version v51a, created Tue 12/06/2005                  *
 * International Technegroup Inc. (www.iti-oh.com)              *
 ****************************************************************/
FILE_DESCRIPTION((''),'2;1');
FILE_NAME('\\\\pc50\\users\\dpp\\DraftingIncoming\\6080-137 FieldCageTermination Plate-7.stp','2008-02-21T14:53:53',('mds'),(''),'Autodesk Inventor 11','Autodesk Inventor 11','');
FILE_SCHEMA(('AUTOMOTIVE_DESIGN { 1 0 10303 214 1 1 1 1 }'));
ENDSEC;
DATA;
#5=APPLICATION_CONTEXT('automotive design');
#6=APPLICATION_PROTOCOL_DEFINITION('International Standard','automotive_design',2001,#5);
#7=PRODUCT_CONTEXT('',#5,'mechanical');
#8=PRODUCT('6080-137 FieldCageTermination Plate-7','6080-137 FieldCageTermination Plate-7',$,(#7));
#9=PRODUCT_RELATED_PRODUCT_CATEGORY('part',$,(#8));
#10=PRODUCT_DEFINITION_FORMATION('',$,#8);
#11=PRODUCT_DEFINITION_CONTEXT('part definition',#5,'design');
#12=PRODUCT_DEFINITION('',$,#10,#11);
#18=(NAMED_UNIT(*)PLANE_ANGLE_UNIT()SI_UNIT($,.RADIAN.));
#19=DIMENSIONAL_EXPONENTS(0.0,0.0,0.0,0.0,0.0,0.0,0.0);
#20=PLANE_ANGLE_MEASURE_WITH_UNIT(PLANE_ANGLE_MEASURE(0.017453292500000),#18);
#24=(CONVERSION_BASED_UNIT('DEGREE',#20)NAMED_UNIT(#19)PLANE_ANGLE_UNIT());
#28=(NAMED_UNIT(*)SI_UNIT($,.STERADIAN.)SOLID_ANGLE_UNIT());
#32=(LENGTH_UNIT()NAMED_UNIT(*)SI_UNIT(.MILLI.,.METRE.));
#34=UNCERTAINTY_MEASURE_WITH_UNIT(LENGTH_MEASURE(0.010000000000000),#32,'DISTANCE_ACCURACY_VALUE','');
#36=(GEOMETRIC_REPRESENTATION_CONTEXT(3)GLOBAL_UNCERTAINTY_ASSIGNED_CONTEXT((#34))GLOBAL_UNIT_ASSIGNED_CONTEXT((#24,#28,#32))REPRESENTATION_CONTEXT('None','None'));
#37=AXIS2_PLACEMENT_3D('',#38,#39,#40);
#38=CARTESIAN_POINT('',(0.0,0.0,0.0));
#39=DIRECTION('',(0.0,0.0,1.0));
#40=DIRECTION('',(1.0,0.0,0.0));
#41=SHAPE_REPRESENTATION('',(#37),#36);
#42=PRODUCT_DEFINITION_SHAPE('','',#12);
#43=SHAPE_DEFINITION_REPRESENTATION(#42,#41);
#44=CARTESIAN_POINT('',(253.573848878125010,-236.874023829405620,7.620989449764984));
#45=DIRECTION('',(0.0,0.0,-1.0));
#46=DIRECTION('',(1.0,0.0,0.0));
#47=AXIS2_PLACEMENT_3D('',#44,#45,#46);
#48=CONICAL_SURFACE('',#47,1.033500000000000,59.000000000000007);
#49=CARTESIAN_POINT('',(255.640848878125010,-236.874023829405620,7.000000000000001));
#50=VERTEX_POINT('',#49);
#51=CARTESIAN_POINT('',(253.573848878125010,-236.874023829405620,7.000000000000001));
#52=DIRECTION('',(0.0,0.0,1.0));
#53=DIRECTION('',(1.0,0.0,0.0));
#54=AXIS2_PLACEMENT_3D('',#51,#52,#53);
#55=CIRCLE('',#54,2.067000000000000);
#56=EDGE_CURVE('',#50,#50,#55,.T.);
#57=ORIENTED_EDGE('',*,*,#56,.F.);
#58=EDGE_LOOP('',(#57));
#59=FACE_OUTER_BOUND('',#58,.T.);
#60=ADVANCED_FACE('',(#59),#48,.F.);
#61=CARTESIAN_POINT('',(253.573848878125010,-236.874023829405620,3.500000000000000));
#62=DIRECTION('',(0.0,0.0,1.0));
#63=DIRECTION('',(1.0,0.0,0.0));
#64=AXIS2_PLACEMENT_3D('',#61,#62,#63);
#65=CYLINDRICAL_SURFACE('',#64,2.067000000000000);
#66=CARTESIAN_POINT('',(255.640848878125010,-236.874023829405620,0.0));
#67=VERTEX_POINT('',#66);
#68=CARTESIAN_POINT('',(253.573848878125010,-236.874023829405620,0.0));
#69=DIRECTION('',(0.0,0.0,1.0));
#70=DIRECTION('',(1.0,0.0,0.0));
#71=AXIS2_PLACEMENT_3D('',#68,#69,#70);
#72=CIRCLE('',#71,2.067000000000000);
#73=EDGE_CURVE('',#67,#67,#72,.T.);
#74=ORIENTED_EDGE('',*,*,#73,.F.);
#75=EDGE_LOOP('',(#74));
#76=FACE_OUTER_BOUND('',#75,.T.);
#77=ORIENTED_EDGE('',*,*,#56,.T.);
#78=EDGE_LOOP('',(#77));
#79=FACE_BOUND('',#78,.T.);
#80=ADVANCED_FACE('',(#76,#79),#65,.F.);
#81=CARTESIAN_POINT('',(325.038416726115710,-121.486738585657950,7.620989449764984));
#82=DIRECTION('',(0.0,0.0,-1.0));
#83=DIRECTION('',(1.0,0.0,0.0));
#84=AXIS2_PLACEMENT_3D('',#81,#82,#83);
#85=CONICAL_SURFACE('',#84,1.033500000000000,59.000000000000007);
#86=CARTESIAN_POINT('',(327.105416726115660,-121.486738585657950,7.000000000000001));
#87=VERTEX_POINT('',#86);
#88=CARTESIAN_POINT('',(325.038416726115710,-121.486738585657950,7.000000000000001));
#89=DIRECTION('',(0.0,0.0,1.0));
#90=DIRECTION('',(1.0,0.0,0.0));
#91=AXIS2_PLACEMENT_3D('',#88,#89,#90);
#92=CIRCLE('',#91,2.067000000000000);
#93=EDGE_CURVE('',#87,#87,#92,.T.);
#94=ORIENTED_EDGE('',*,*,#93,.F.);
#95=EDGE_LOOP('',(#94));
#96=FACE_OUTER_BOUND('',#95,.T.);
#97=ADVANCED_FACE('',(#96),#85,.F.);
#98=CARTESIAN_POINT('',(325.038416726115710,-121.486738585657950,3.500000000000000));
#99=DIRECTION('',(0.0,0.0,1.0));
#100=DIRECTION('',(1.0,0.0,0.0));
#101=AXIS2_PLACEMENT_3D('',#98,#99,#100);
#102=CYLINDRICAL_SURFACE('',#101,2.067000000000000);
#103=CARTESIAN_POINT('',(327.105416726115660,-121.486738585657950,0.0));
#104=VERTEX_POINT('',#103);
#105=CARTESIAN_POINT('',(325.038416726115710,-121.486738585657950,0.0));
#106=DIRECTION('',(0.0,0.0,1.0));
#107=DIRECTION('',(1.0,0.0,0.0));
#108=AXIS2_PLACEMENT_3D('',#105,#106,#107);
#109=CIRCLE('',#108,2.067000000000000);
#110=EDGE_CURVE('',#104,#104,#109,.T.);
#111=ORIENTED_EDGE('',*,*,#110,.F.);
#112=EDGE_LOOP('',(#111));
#113=FACE_OUTER_BOUND('',#112,.T.);
#114=ORIENTED_EDGE('',*,*,#93,.T.);
#115=EDGE_LOOP('',(#114));
#116=FACE_BOUND('',#115,.T.);
#117=ADVANCED_FACE('',(#113,#116),#102,.F.);
#118=CARTESIAN_POINT('',(274.683992736724520,-111.804382612835980,7.620989449764984));
#119=DIRECTION('',(0.0,0.0,-1.0));
#120=DIRECTION('',(1.0,0.0,0.0));
#121=AXIS2_PLACEMENT_3D('',#118,#119,#120);
#122=CONICAL_SURFACE('',#121,1.033500000000000,59.000000000000007);
#123=CARTESIAN_POINT('',(276.750992736724530,-111.804382612835980,7.000000000000001));
#124=VERTEX_POINT('',#123);
#125=CARTESIAN_POINT('',(274.683992736724520,-111.804382612835980,7.000000000000001));
#126=DIRECTION('',(0.0,0.0,1.0));
#127=DIRECTION('',(1.0,0.0,0.0));
#128=AXIS2_PLACEMENT_3D('',#125,#126,#127);
#129=CIRCLE('',#128,2.067000000000000);
#130=EDGE_CURVE('',#124,#124,#129,.T.);
#131=ORIENTED_EDGE('',*,*,#130,.F.);
#132=EDGE_LOOP('',(#131));
#133=FACE_OUTER_BOUND('',#132,.T.);
#134=ADVANCED_FACE('',(#133),#122,.F.);
#135=CARTESIAN_POINT('',(274.683992736724520,-111.804382612835980,3.500000000000000));
#136=DIRECTION('',(0.0,0.0,1.0));
#137=DIRECTION('',(1.0,0.0,0.0));
#138=AXIS2_PLACEMENT_3D('',#135,#136,#137);
#139=CYLINDRICAL_SURFACE('',#138,2.067000000000000);
#140=CARTESIAN_POINT('',(276.750992736724530,-111.804382612835980,0.0));
#141=VERTEX_POINT('',#140);
#142=CARTESIAN_POINT('',(274.683992736724520,-111.804382612835980,0.0));
#143=DIRECTION('',(0.0,0.0,1.0));
#144=DIRECTION('',(1.0,0.0,0.0));
#145=AXIS2_PLACEMENT_3D('',#142,#143,#144);
#146=CIRCLE('',#145,2.067000000000000);
#147=EDGE_CURVE('',#141,#141,#146,.T.);
#148=ORIENTED_EDGE('',*,*,#147,.F.);
#149=EDGE_LOOP('',(#148));
#150=FACE_OUTER_BOUND('',#149,.T.);
#151=ORIENTED_EDGE('',*,*,#130,.T.);
#152=EDGE_LOOP('',(#151));
#153=FACE_BOUND('',#152,.T.);
#154=ADVANCED_FACE('',(#150,#153),#139,.F.);
#155=CARTESIAN_POINT('',(264.829228627418620,-110.105905773339340,0.0));
#156=DIRECTION('',(-0.986052765401774,0.166433001065037,0.0));
#157=DIRECTION('',(0.0,0.0,1.0));
#158=AXIS2_PLACEMENT_3D('',#155,#156,#157);
#159=PLANE('',#158);
#160=CARTESIAN_POINT('',(238.590048223396560,-265.563154237852300,9.0));
#161=VERTEX_POINT('',#160);
#162=CARTESIAN_POINT('',(266.493558720026610,-100.245377633754270,9.0));
#163=VERTEX_POINT('',#162);
#164=CARTESIAN_POINT('',(238.590048223396560,-265.563154237852300,9.0));
#165=DIRECTION('',(0.166433001065038,0.986052765401774,0.0));
#166=VECTOR('',#165,167.656115782747410);
#167=LINE('',#164,#166);
#168=EDGE_CURVE('',#161,#163,#167,.T.);
#169=ORIENTED_EDGE('',*,*,#168,.T.);
#170=CARTESIAN_POINT('',(266.493558720026610,-100.245377633754270,0.0));
#171=VERTEX_POINT('',#170);
#172=CARTESIAN_POINT('',(266.493558720026610,-100.245377633754270,0.0));
#173=DIRECTION('',(0.0,0.0,1.0));
#174=VECTOR('',#173,9.0);
#175=LINE('',#172,#174);
#176=EDGE_CURVE('',#171,#163,#175,.T.);
#177=ORIENTED_EDGE('',*,*,#176,.F.);
#178=CARTESIAN_POINT('',(238.590048223396560,-265.563154237852300,0.0));
#179=VERTEX_POINT('',#178);
#180=CARTESIAN_POINT('',(266.493558720026610,-100.245377633754270,0.0));
#181=DIRECTION('',(-0.166433001065038,-0.986052765401774,0.0));
#182=VECTOR('',#181,167.656115782747410);
#183=LINE('',#180,#182);
#184=EDGE_CURVE('',#171,#179,#183,.T.);
#185=ORIENTED_EDGE('',*,*,#184,.T.);
#186=CARTESIAN_POINT('',(238.590048223396560,-265.563154237852300,0.0));
#187=DIRECTION('',(0.0,0.0,1.0));
#188=VECTOR('',#187,9.0);
#189=LINE('',#186,#188);
#190=EDGE_CURVE('',#179,#161,#189,.T.);
#191=ORIENTED_EDGE('',*,*,#190,.T.);
#192=EDGE_LOOP('',(#169,#177,#185,#191));
#193=FACE_OUTER_BOUND('',#192,.T.);
#194=ADVANCED_FACE('',(#193),#159,.T.);
#195=CARTESIAN_POINT('',(1.026956E-013,-1676.115000000000000,0.0));
#196=DIRECTION('',(0.0,0.0,1.0));
#197=DIRECTION('',(0.211658319088734,0.977343724572134,0.0));
#198=AXIS2_PLACEMENT_3D('',#195,#196,#197);
#199=CYLINDRICAL_SURFACE('',#198,1598.243999999999900);
#200=CARTESIAN_POINT('',(338.281638533655100,-114.081256264934180,9.0));
#201=VERTEX_POINT('',#200);
#202=CARTESIAN_POINT('',(1.026956E-013,-1676.115000000000000,9.0));
#203=DIRECTION('',(0.0,0.0,-1.0));
#204=DIRECTION('',(0.211658319088734,0.977343724572134,0.0));
#205=AXIS2_PLACEMENT_3D('',#202,#203,#204);
#206=CIRCLE('',#205,1598.243999999999900);
#207=EDGE_CURVE('',#163,#201,#206,.T.);
#208=ORIENTED_EDGE('',*,*,#207,.T.);
#209=CARTESIAN_POINT('',(338.281638533655100,-114.081256264934180,0.0));
#210=VERTEX_POINT('',#209);
#211=CARTESIAN_POINT('',(338.281638533655100,-114.081256264934180,0.0));
#212=DIRECTION('',(0.0,0.0,1.0));
#213=VECTOR('',#212,9.0);
#214=LINE('',#211,#213);
#215=EDGE_CURVE('',#210,#201,#214,.T.);
#216=ORIENTED_EDGE('',*,*,#215,.F.);
#217=CARTESIAN_POINT('',(1.026956E-013,-1676.115000000000000,0.0));
#218=DIRECTION('',(0.0,0.0,1.0));
#219=DIRECTION('',(0.211658319088734,0.977343724572134,0.0));
#220=AXIS2_PLACEMENT_3D('',#217,#218,#219);
#221=CIRCLE('',#220,1598.243999999999900);
#222=EDGE_CURVE('',#210,#171,#221,.T.);
#223=ORIENTED_EDGE('',*,*,#222,.T.);
#224=ORIENTED_EDGE('',*,*,#176,.T.);
#225=EDGE_LOOP('',(#208,#216,#223,#224));
#226=FACE_OUTER_BOUND('',#225,.T.);
#227=ADVANCED_FACE('',(#226),#199,.T.);
#228=CARTESIAN_POINT('',(0.0,0.0,0.0));
#229=DIRECTION('',(0.0,0.0,1.0));
#230=DIRECTION('',(0.668319462810634,-0.743874381618634,0.0));
#231=AXIS2_PLACEMENT_3D('',#228,#229,#230);
#232=CYLINDRICAL_SURFACE('',#231,357.000000000000060);
#233=CARTESIAN_POINT('',(0.0,0.0,9.0));
#234=DIRECTION('',(0.0,0.0,-1.000000000000000));
#235=DIRECTION('',(0.668319462810634,-0.743874381618634,0.0));
#236=AXIS2_PLACEMENT_3D('',#233,#234,#235);
#237=CIRCLE('',#236,357.0);
#238=EDGE_CURVE('',#201,#161,#237,.T.);
#239=ORIENTED_EDGE('',*,*,#238,.T.);
#240=ORIENTED_EDGE('',*,*,#190,.F.);
#241=CARTESIAN_POINT('',(0.0,0.0,0.0));
#242=DIRECTION('',(0.0,0.0,1.000000000000000));
#243=DIRECTION('',(0.668319462810634,-0.743874381618634,0.0));
#244=AXIS2_PLACEMENT_3D('',#241,#242,#243);
#245=CIRCLE('',#244,357.0);
#246=EDGE_CURVE('',#179,#210,#245,.T.);
#247=ORIENTED_EDGE('',*,*,#246,.T.);
#248=ORIENTED_EDGE('',*,*,#215,.T.);
#249=EDGE_LOOP('',(#239,#240,#247,#248));
#250=FACE_OUTER_BOUND('',#249,.T.);
#251=ADVANCED_FACE('',(#250),#232,.T.);
#252=CARTESIAN_POINT('',(301.206573067927140,-111.738763080876920,0.0));
#253=DIRECTION('',(0.0,0.0,1.0));
#254=DIRECTION('',(1.0,0.0,0.0));
#255=AXIS2_PLACEMENT_3D('',#252,#253,#254);
#256=PLANE('',#255);
#257=ORIENTED_EDGE('',*,*,#246,.F.);
#258=ORIENTED_EDGE('',*,*,#184,.F.);
#259=ORIENTED_EDGE('',*,*,#222,.F.);
#260=EDGE_LOOP('',(#257,#258,#259));
#261=FACE_OUTER_BOUND('',#260,.T.);
#262=ORIENTED_EDGE('',*,*,#73,.T.);
#263=EDGE_LOOP('',(#262));
#264=FACE_BOUND('',#263,.T.);
#265=ORIENTED_EDGE('',*,*,#110,.T.);
#266=EDGE_LOOP('',(#265));
#267=FACE_BOUND('',#266,.T.);
#268=ORIENTED_EDGE('',*,*,#147,.T.);
#269=EDGE_LOOP('',(#268));
#270=FACE_BOUND('',#269,.T.);
#271=ADVANCED_FACE('',(#261,#264,#267,#270),#256,.F.);
#272=CARTESIAN_POINT('',(301.206573067927020,-111.738763080876880,9.0));
#273=DIRECTION('',(0.0,0.0,1.0));
#274=DIRECTION('',(1.0,0.0,0.0));
#275=AXIS2_PLACEMENT_3D('',#272,#273,#274);
#276=PLANE('',#275);
#277=ORIENTED_EDGE('',*,*,#238,.F.);
#278=ORIENTED_EDGE('',*,*,#207,.F.);
#279=ORIENTED_EDGE('',*,*,#168,.F.);
#280=EDGE_LOOP('',(#277,#278,#279));
#281=FACE_OUTER_BOUND('',#280,.T.);
#282=ADVANCED_FACE('',(#281),#276,.T.);
#283=CLOSED_SHELL('',(#60,#80,#97,#117,#134,#154,#194,#227,#251,#271,#282));
#284=MANIFOLD_SOLID_BREP('',#283);
#285=COLOUR_RGB('Gold Metallic',0.678430974483490,0.533333003520966,0.094117596745491);
#286=FILL_AREA_STYLE_COLOUR('Gold Metallic',#285);
#287=FILL_AREA_STYLE('Gold Metallic',(#286));
#288=SURFACE_STYLE_FILL_AREA(#287);
#289=SURFACE_SIDE_STYLE('Gold Metallic',(#288));
#290=SURFACE_STYLE_USAGE(.BOTH.,#289);
#291=PRESENTATION_STYLE_ASSIGNMENT((#290));
#292=STYLED_ITEM('',(#291),#284);
#293=MECHANICAL_DESIGN_GEOMETRIC_PRESENTATION_REPRESENTATION('',(#292),#36);
#294=ADVANCED_BREP_SHAPE_REPRESENTATION('ABSR',(#284),#36);
#295=SHAPE_REPRESENTATION_RELATIONSHIP('SRR','None',#294,#41);
ENDSEC;
END-ISO-10303-21;
