ISO-10303-21;
HEADER;
/****************************************************************
 * Generated by software with PDE/Lib inside                    *
 * PDElib Version v51a, created Tue 12/06/2005                  *
 * International Technegroup Inc. (www.iti-oh.com)              *
 ****************************************************************/
FILE_DESCRIPTION((''),'2;1');
FILE_NAME('\\\\pc50\\users\\dpp\\DraftingIncoming\\6080-139 FieldCageTerminationStandoff.stp','2008-02-21T14:55:27',('mds'),(''),'Autodesk Inventor 11','Autodesk Inventor 11','');
FILE_SCHEMA(('AUTOMOTIVE_DESIGN { 1 0 10303 214 1 1 1 1 }'));
ENDSEC;
DATA;
#5=APPLICATION_CONTEXT('automotive design');
#6=APPLICATION_PROTOCOL_DEFINITION('International Standard','automotive_design',2001,#5);
#7=PRODUCT_CONTEXT('',#5,'mechanical');
#8=PRODUCT('6080-139 FieldCageTerminationStandoff','6080-139 FieldCageTerminationStandoff',$,(#7));
#9=PRODUCT_RELATED_PRODUCT_CATEGORY('part',$,(#8));
#10=PRODUCT_DEFINITION_FORMATION('',$,#8);
#11=PRODUCT_DEFINITION_CONTEXT('part definition',#5,'design');
#12=PRODUCT_DEFINITION('',$,#10,#11);
#18=(NAMED_UNIT(*)PLANE_ANGLE_UNIT()SI_UNIT($,.RADIAN.));
#19=DIMENSIONAL_EXPONENTS(0.0,0.0,0.0,0.0,0.0,0.0,0.0);
#20=PLANE_ANGLE_MEASURE_WITH_UNIT(PLANE_ANGLE_MEASURE(0.017453292500000),#18);
#24=(CONVERSION_BASED_UNIT('DEGREE',#20)NAMED_UNIT(#19)PLANE_ANGLE_UNIT());
#28=(NAMED_UNIT(*)SI_UNIT($,.STERADIAN.)SOLID_ANGLE_UNIT());
#32=(LENGTH_UNIT()NAMED_UNIT(*)SI_UNIT(.MILLI.,.METRE.));
#34=UNCERTAINTY_MEASURE_WITH_UNIT(LENGTH_MEASURE(0.010000000000000),#32,'DISTANCE_ACCURACY_VALUE','');
#36=(GEOMETRIC_REPRESENTATION_CONTEXT(3)GLOBAL_UNCERTAINTY_ASSIGNED_CONTEXT((#34))GLOBAL_UNIT_ASSIGNED_CONTEXT((#24,#28,#32))REPRESENTATION_CONTEXT('None','None'));
#37=AXIS2_PLACEMENT_3D('',#38,#39,#40);
#38=CARTESIAN_POINT('',(0.0,0.0,0.0));
#39=DIRECTION('',(0.0,0.0,1.0));
#40=DIRECTION('',(1.0,0.0,0.0));
#41=SHAPE_REPRESENTATION('',(#37),#36);
#42=PRODUCT_DEFINITION_SHAPE('','',#12);
#43=SHAPE_DEFINITION_REPRESENTATION(#42,#41);
#44=CARTESIAN_POINT('',(0.0,0.0,0.0));
#45=DIRECTION('',(0.0,0.0,1.0));
#46=DIRECTION('',(1.0,0.0,0.0));
#47=AXIS2_PLACEMENT_3D('',#44,#45,#46);
#48=CYLINDRICAL_SURFACE('',#47,4.890000000000000);
#49=CARTESIAN_POINT('',(-4.890000000000000,5.988325E-016,1.500000000000000));
#50=VERTEX_POINT('',#49);
#51=CARTESIAN_POINT('',(0.0,0.0,1.500000000000000));
#52=DIRECTION('',(0.0,0.0,-1.0));
#53=DIRECTION('',(1.0,0.0,0.0));
#54=AXIS2_PLACEMENT_3D('',#51,#52,#53);
#55=CIRCLE('',#54,4.890000000000000);
#56=EDGE_CURVE('',#50,#50,#55,.T.);
#57=ORIENTED_EDGE('',*,*,#56,.T.);
#58=EDGE_LOOP('',(#57));
#59=FACE_OUTER_BOUND('',#58,.T.);
#60=CARTESIAN_POINT('',(-4.890000000000000,5.988325E-016,0.0));
#61=VERTEX_POINT('',#60);
#62=CARTESIAN_POINT('',(0.0,0.0,0.0));
#63=DIRECTION('',(0.0,0.0,-1.0));
#64=DIRECTION('',(1.0,0.0,0.0));
#65=AXIS2_PLACEMENT_3D('',#62,#63,#64);
#66=CIRCLE('',#65,4.890000000000000);
#67=EDGE_CURVE('',#61,#61,#66,.T.);
#68=ORIENTED_EDGE('',*,*,#67,.F.);
#69=EDGE_LOOP('',(#68));
#70=FACE_BOUND('',#69,.T.);
#71=ADVANCED_FACE('',(#59,#70),#48,.T.);
#72=CARTESIAN_POINT('',(0.0,0.0,0.0));
#73=DIRECTION('',(0.0,0.0,1.0));
#74=DIRECTION('',(1.0,0.0,0.0));
#75=AXIS2_PLACEMENT_3D('',#72,#73,#74);
#76=CYLINDRICAL_SURFACE('',#75,6.800000000000001);
#77=CARTESIAN_POINT('',(-6.800000000000001,8.327323E-016,1.500000000000000));
#78=VERTEX_POINT('',#77);
#79=CARTESIAN_POINT('',(0.0,0.0,1.500000000000000));
#80=DIRECTION('',(0.0,0.0,-1.0));
#81=DIRECTION('',(1.0,0.0,0.0));
#82=AXIS2_PLACEMENT_3D('',#79,#80,#81);
#83=CIRCLE('',#82,6.800000000000001);
#84=EDGE_CURVE('',#78,#78,#83,.T.);
#85=ORIENTED_EDGE('',*,*,#84,.F.);
#86=EDGE_LOOP('',(#85));
#87=FACE_OUTER_BOUND('',#86,.T.);
#88=CARTESIAN_POINT('',(-6.800000000000001,8.327323E-016,0.0));
#89=VERTEX_POINT('',#88);
#90=CARTESIAN_POINT('',(0.0,0.0,0.0));
#91=DIRECTION('',(0.0,0.0,1.0));
#92=DIRECTION('',(1.0,0.0,0.0));
#93=AXIS2_PLACEMENT_3D('',#90,#91,#92);
#94=CIRCLE('',#93,6.800000000000001);
#95=EDGE_CURVE('',#89,#89,#94,.T.);
#96=ORIENTED_EDGE('',*,*,#95,.F.);
#97=EDGE_LOOP('',(#96));
#98=FACE_BOUND('',#97,.T.);
#99=ADVANCED_FACE('',(#87,#98),#76,.F.);
#100=CARTESIAN_POINT('',(0.0,0.0,1.500000000000000));
#101=DIRECTION('',(0.0,0.0,1.0));
#102=DIRECTION('',(1.0,0.0,0.0));
#103=AXIS2_PLACEMENT_3D('',#100,#101,#102);
#104=PLANE('',#103);
#105=ORIENTED_EDGE('',*,*,#84,.T.);
#106=EDGE_LOOP('',(#105));
#107=FACE_OUTER_BOUND('',#106,.T.);
#108=ORIENTED_EDGE('',*,*,#56,.F.);
#109=EDGE_LOOP('',(#108));
#110=FACE_BOUND('',#109,.T.);
#111=ADVANCED_FACE('',(#107,#110),#104,.F.);
#112=CARTESIAN_POINT('',(0.0,0.0,0.0));
#113=DIRECTION('',(0.0,0.0,-1.0));
#114=DIRECTION('',(-1.0,0.0,0.0));
#115=AXIS2_PLACEMENT_3D('',#112,#113,#114);
#116=PLANE('',#115);
#117=CARTESIAN_POINT('',(8.0,9.796851E-016,0.0));
#118=VERTEX_POINT('',#117);
#119=CARTESIAN_POINT('',(0.0,0.0,0.0));
#120=DIRECTION('',(0.0,0.0,-1.0));
#121=DIRECTION('',(-1.0,0.0,0.0));
#122=AXIS2_PLACEMENT_3D('',#119,#120,#121);
#123=CIRCLE('',#122,8.0);
#124=EDGE_CURVE('',#118,#118,#123,.T.);
#125=ORIENTED_EDGE('',*,*,#124,.T.);
#126=EDGE_LOOP('',(#125));
#127=FACE_OUTER_BOUND('',#126,.T.);
#128=ORIENTED_EDGE('',*,*,#95,.T.);
#129=EDGE_LOOP('',(#128));
#130=FACE_BOUND('',#129,.T.);
#131=ADVANCED_FACE('',(#127,#130),#116,.T.);
#132=CARTESIAN_POINT('',(2.067000000000001,-2.531261E-016,8.0));
#133=CARTESIAN_POINT('',(0.0,0.0,9.241978899529968));
#134=CARTESIAN_POINT('',(2.067000000000000,-2.067000000000001,8.0));
#135=CARTESIAN_POINT('',(0.0,0.0,9.241978899529968));
#136=CARTESIAN_POINT('',(-2.531261E-016,-2.067000000000001,8.0));
#137=CARTESIAN_POINT('',(0.0,0.0,9.241978899529968));
#138=CARTESIAN_POINT('',(-2.067000000000001,-2.067000000000000,8.0));
#139=CARTESIAN_POINT('',(0.0,0.0,9.241978899529968));
#140=CARTESIAN_POINT('',(-2.067000000000001,2.531261E-016,8.0));
#141=CARTESIAN_POINT('',(0.0,0.0,9.241978899529968));
#142=CARTESIAN_POINT('',(-2.067000000000000,2.067000000000001,8.0));
#143=CARTESIAN_POINT('',(0.0,0.0,9.241978899529968));
#144=CARTESIAN_POINT('',(2.531261E-016,2.067000000000001,8.0));
#145=CARTESIAN_POINT('',(0.0,0.0,9.241978899529968));
#146=CARTESIAN_POINT('',(2.067000000000001,2.067000000000000,8.0));
#147=CARTESIAN_POINT('',(0.0,0.0,9.241978899529968));
#148=CARTESIAN_POINT('',(2.067000000000001,-2.531261E-016,8.0));
#149=CARTESIAN_POINT('',(0.0,0.0,9.241978899529968));
#157=(BOUNDED_SURFACE()B_SPLINE_SURFACE(1,2,((#132,#134,#136,#138,#140,#142,#144,#146,#148),(#133,#135,#137,#139,#141,#143,#145,#147,#149)),.UNSPECIFIED.,.F.,.T.,.U.)B_SPLINE_SURFACE_WITH_KNOTS((2,2),(3,2,2,2,3),(-1.166633397215332,1.166633397215330),(0.0,1.623418003742526,3.246836007485051,4.870254011227577,6.493672014970103),.UNSPECIFIED.)GEOMETRIC_REPRESENTATION_ITEM()RATIONAL_B_SPLINE_SURFACE(((1.0,0.707106781186548,1.0,0.707106781186548,1.0,0.707106781186548,1.0,0.707106781186548,1.0),(1.0,0.707106781186548,1.0,0.707106781186548,1.0,0.707106781186548,1.0,0.707106781186548,1.0)))REPRESENTATION_ITEM('')SURFACE());
#158=CARTESIAN_POINT('',(-2.067000000000000,0.0,8.0));
#159=VERTEX_POINT('',#158);
#160=CARTESIAN_POINT('',(0.0,0.0,8.0));
#161=DIRECTION('',(0.0,0.0,-1.0));
#162=DIRECTION('',(-1.0,0.0,0.0));
#163=AXIS2_PLACEMENT_3D('',#160,#161,#162);
#164=CIRCLE('',#163,2.067000000000000);
#165=EDGE_CURVE('',#159,#159,#164,.T.);
#166=ORIENTED_EDGE('',*,*,#165,.T.);
#167=EDGE_LOOP('',(#166));
#168=FACE_OUTER_BOUND('',#167,.T.);
#169=ADVANCED_FACE('',(#168),#157,.F.);
#170=CARTESIAN_POINT('',(2.067000000000000,-2.531261E-016,0.0));
#171=CARTESIAN_POINT('',(2.067000000000000,-2.531261E-016,8.0));
#172=CARTESIAN_POINT('',(2.066999999999999,-2.067000000000000,0.0));
#173=CARTESIAN_POINT('',(2.066999999999999,-2.067000000000000,8.0));
#174=CARTESIAN_POINT('',(-2.531261E-016,-2.067000000000000,0.0));
#175=CARTESIAN_POINT('',(-2.531261E-016,-2.067000000000000,8.0));
#176=CARTESIAN_POINT('',(-2.067000000000000,-2.066999999999999,0.0));
#177=CARTESIAN_POINT('',(-2.067000000000000,-2.066999999999999,8.0));
#178=CARTESIAN_POINT('',(-2.067000000000000,2.531261E-016,0.0));
#179=CARTESIAN_POINT('',(-2.067000000000000,2.531261E-016,8.0));
#180=CARTESIAN_POINT('',(-2.066999999999999,2.067000000000000,0.0));
#181=CARTESIAN_POINT('',(-2.066999999999999,2.067000000000000,8.0));
#182=CARTESIAN_POINT('',(2.531261E-016,2.067000000000000,0.0));
#183=CARTESIAN_POINT('',(2.531261E-016,2.067000000000000,8.0));
#184=CARTESIAN_POINT('',(2.067000000000000,2.066999999999999,0.0));
#185=CARTESIAN_POINT('',(2.067000000000000,2.066999999999999,8.0));
#186=CARTESIAN_POINT('',(2.067000000000000,-2.531261E-016,0.0));
#187=CARTESIAN_POINT('',(2.067000000000000,-2.531261E-016,8.0));
#195=(BOUNDED_SURFACE()B_SPLINE_SURFACE(1,2,((#170,#172,#174,#176,#178,#180,#182,#184,#186),(#171,#173,#175,#177,#179,#181,#183,#185,#187)),.UNSPECIFIED.,.F.,.T.,.U.)B_SPLINE_SURFACE_WITH_KNOTS((2,2),(3,2,2,2,3),(-1.935171746492501,1.935171746492501),(0.0,3.246836007485051,6.493672014970103,9.740508022455154,12.987344029940205),.UNSPECIFIED.)GEOMETRIC_REPRESENTATION_ITEM()RATIONAL_B_SPLINE_SURFACE(((1.0,0.707106781186548,1.0,0.707106781186548,1.0,0.707106781186548,1.0,0.707106781186548,1.0),(1.0,0.707106781186548,1.0,0.707106781186548,1.0,0.707106781186548,1.0,0.707106781186548,1.0)))REPRESENTATION_ITEM('')SURFACE());
#196=CARTESIAN_POINT('',(-2.067000000000000,0.0,0.0));
#197=VERTEX_POINT('',#196);
#198=CARTESIAN_POINT('',(0.0,0.0,0.0));
#199=DIRECTION('',(0.0,0.0,1.0));
#200=DIRECTION('',(-1.0,0.0,0.0));
#201=AXIS2_PLACEMENT_3D('',#198,#199,#200);
#202=CIRCLE('',#201,2.067000000000000);
#203=EDGE_CURVE('',#197,#197,#202,.T.);
#204=ORIENTED_EDGE('',*,*,#203,.F.);
#205=EDGE_LOOP('',(#204));
#206=FACE_OUTER_BOUND('',#205,.T.);
#207=ORIENTED_EDGE('',*,*,#165,.F.);
#208=EDGE_LOOP('',(#207));
#209=FACE_BOUND('',#208,.T.);
#210=ADVANCED_FACE('',(#206,#209),#195,.F.);
#211=CARTESIAN_POINT('',(-2.066999999999998,-2.531261E-016,11.0));
#212=CARTESIAN_POINT('',(0.0,0.0,9.758021100470034));
#213=CARTESIAN_POINT('',(-2.066999999999998,-2.066999999999998,11.0));
#214=CARTESIAN_POINT('',(0.0,0.0,9.758021100470034));
#215=CARTESIAN_POINT('',(2.531261E-016,-2.066999999999998,11.0));
#216=CARTESIAN_POINT('',(0.0,0.0,9.758021100470034));
#217=CARTESIAN_POINT('',(2.066999999999998,-2.066999999999998,11.0));
#218=CARTESIAN_POINT('',(0.0,0.0,9.758021100470034));
#219=CARTESIAN_POINT('',(2.066999999999998,2.531261E-016,11.0));
#220=CARTESIAN_POINT('',(0.0,0.0,9.758021100470034));
#221=CARTESIAN_POINT('',(2.066999999999998,2.066999999999998,11.0));
#222=CARTESIAN_POINT('',(0.0,0.0,9.758021100470034));
#223=CARTESIAN_POINT('',(-2.531261E-016,2.066999999999998,11.0));
#224=CARTESIAN_POINT('',(0.0,0.0,9.758021100470034));
#225=CARTESIAN_POINT('',(-2.066999999999998,2.066999999999998,11.0));
#226=CARTESIAN_POINT('',(0.0,0.0,9.758021100470034));
#227=CARTESIAN_POINT('',(-2.066999999999998,-2.531261E-016,11.0));
#228=CARTESIAN_POINT('',(0.0,0.0,9.758021100470034));
#236=(BOUNDED_SURFACE()B_SPLINE_SURFACE(1,2,((#211,#213,#215,#217,#219,#221,#223,#225,#227),(#212,#214,#216,#218,#220,#222,#224,#226,#228)),.UNSPECIFIED.,.F.,.T.,.U.)B_SPLINE_SURFACE_WITH_KNOTS((2,2),(3,2,2,2,3),(-1.166633397215328,1.166633397215330),(0.0,1.623418003742526,3.246836007485051,4.870254011227577,6.493672014970103),.UNSPECIFIED.)GEOMETRIC_REPRESENTATION_ITEM()RATIONAL_B_SPLINE_SURFACE(((1.0,0.707106781186548,1.0,0.707106781186548,1.0,0.707106781186548,1.0,0.707106781186548,1.0),(1.0,0.707106781186548,1.0,0.707106781186548,1.0,0.707106781186548,1.0,0.707106781186548,1.0)))REPRESENTATION_ITEM('')SURFACE());
#237=CARTESIAN_POINT('',(2.067000000000000,0.0,11.0));
#238=VERTEX_POINT('',#237);
#239=CARTESIAN_POINT('',(0.0,0.0,11.0));
#240=DIRECTION('',(0.0,0.0,1.0));
#241=DIRECTION('',(1.0,0.0,0.0));
#242=AXIS2_PLACEMENT_3D('',#239,#240,#241);
#243=CIRCLE('',#242,2.067000000000000);
#244=EDGE_CURVE('',#238,#238,#243,.T.);
#245=ORIENTED_EDGE('',*,*,#244,.T.);
#246=EDGE_LOOP('',(#245));
#247=FACE_OUTER_BOUND('',#246,.T.);
#248=ADVANCED_FACE('',(#247),#236,.F.);
#249=CARTESIAN_POINT('',(-2.067000000000000,-2.531261E-016,19.0));
#250=CARTESIAN_POINT('',(-2.067000000000000,-2.531261E-016,11.0));
#251=CARTESIAN_POINT('',(-2.066999999999999,-2.067000000000000,19.0));
#252=CARTESIAN_POINT('',(-2.066999999999999,-2.067000000000000,11.0));
#253=CARTESIAN_POINT('',(2.531261E-016,-2.067000000000000,19.0));
#254=CARTESIAN_POINT('',(2.531261E-016,-2.067000000000000,11.0));
#255=CARTESIAN_POINT('',(2.067000000000000,-2.066999999999999,19.0));
#256=CARTESIAN_POINT('',(2.067000000000000,-2.066999999999999,11.0));
#257=CARTESIAN_POINT('',(2.067000000000000,2.531261E-016,19.0));
#258=CARTESIAN_POINT('',(2.067000000000000,2.531261E-016,11.0));
#259=CARTESIAN_POINT('',(2.066999999999999,2.067000000000000,19.0));
#260=CARTESIAN_POINT('',(2.066999999999999,2.067000000000000,11.0));
#261=CARTESIAN_POINT('',(-2.531261E-016,2.067000000000000,19.0));
#262=CARTESIAN_POINT('',(-2.531261E-016,2.067000000000000,11.0));
#263=CARTESIAN_POINT('',(-2.067000000000000,2.066999999999999,19.0));
#264=CARTESIAN_POINT('',(-2.067000000000000,2.066999999999999,11.0));
#265=CARTESIAN_POINT('',(-2.067000000000000,-2.531261E-016,19.0));
#266=CARTESIAN_POINT('',(-2.067000000000000,-2.531261E-016,11.0));
#274=(BOUNDED_SURFACE()B_SPLINE_SURFACE(1,2,((#249,#251,#253,#255,#257,#259,#261,#263,#265),(#250,#252,#254,#256,#258,#260,#262,#264,#266)),.UNSPECIFIED.,.F.,.T.,.U.)B_SPLINE_SURFACE_WITH_KNOTS((2,2),(3,2,2,2,3),(-1.935171746492501,1.935171746492501),(0.0,3.246836007485051,6.493672014970103,9.740508022455154,12.987344029940205),.UNSPECIFIED.)GEOMETRIC_REPRESENTATION_ITEM()RATIONAL_B_SPLINE_SURFACE(((1.0,0.707106781186548,1.0,0.707106781186548,1.0,0.707106781186548,1.0,0.707106781186548,1.0),(1.0,0.707106781186548,1.0,0.707106781186548,1.0,0.707106781186548,1.0,0.707106781186548,1.0)))REPRESENTATION_ITEM('')SURFACE());
#275=CARTESIAN_POINT('',(2.067000000000000,0.0,19.0));
#276=VERTEX_POINT('',#275);
#277=CARTESIAN_POINT('',(0.0,0.0,19.0));
#278=DIRECTION('',(0.0,0.0,-1.0));
#279=DIRECTION('',(1.0,0.0,0.0));
#280=AXIS2_PLACEMENT_3D('',#277,#278,#279);
#281=CIRCLE('',#280,2.067000000000000);
#282=EDGE_CURVE('',#276,#276,#281,.T.);
#283=ORIENTED_EDGE('',*,*,#282,.F.);
#284=EDGE_LOOP('',(#283));
#285=FACE_OUTER_BOUND('',#284,.T.);
#286=ORIENTED_EDGE('',*,*,#244,.F.);
#287=EDGE_LOOP('',(#286));
#288=FACE_BOUND('',#287,.T.);
#289=ADVANCED_FACE('',(#285,#288),#274,.F.);
#290=CARTESIAN_POINT('',(0.0,0.0,0.0));
#291=DIRECTION('',(0.0,0.0,1.0));
#292=DIRECTION('',(-1.0,0.0,0.0));
#293=AXIS2_PLACEMENT_3D('',#290,#291,#292);
#294=CYLINDRICAL_SURFACE('',#293,8.0);
#295=CARTESIAN_POINT('',(8.0,9.796851E-016,19.0));
#296=VERTEX_POINT('',#295);
#297=CARTESIAN_POINT('',(0.0,0.0,19.0));
#298=DIRECTION('',(0.0,0.0,-1.0));
#299=DIRECTION('',(-1.0,0.0,0.0));
#300=AXIS2_PLACEMENT_3D('',#297,#298,#299);
#301=CIRCLE('',#300,8.0);
#302=EDGE_CURVE('',#296,#296,#301,.T.);
#303=ORIENTED_EDGE('',*,*,#302,.T.);
#304=EDGE_LOOP('',(#303));
#305=FACE_OUTER_BOUND('',#304,.T.);
#306=ORIENTED_EDGE('',*,*,#124,.F.);
#307=EDGE_LOOP('',(#306));
#308=FACE_BOUND('',#307,.T.);
#309=ADVANCED_FACE('',(#305,#308),#294,.T.);
#310=CARTESIAN_POINT('',(0.0,0.0,19.0));
#311=DIRECTION('',(0.0,0.0,-1.0));
#312=DIRECTION('',(-1.0,0.0,0.0));
#313=AXIS2_PLACEMENT_3D('',#310,#311,#312);
#314=PLANE('',#313);
#315=ORIENTED_EDGE('',*,*,#302,.F.);
#316=EDGE_LOOP('',(#315));
#317=FACE_OUTER_BOUND('',#316,.T.);
#318=ORIENTED_EDGE('',*,*,#282,.T.);
#319=EDGE_LOOP('',(#318));
#320=FACE_BOUND('',#319,.T.);
#321=ADVANCED_FACE('',(#317,#320),#314,.F.);
#322=CARTESIAN_POINT('',(0.0,0.0,0.0));
#323=DIRECTION('',(0.0,0.0,-1.0));
#324=DIRECTION('',(-1.0,0.0,0.0));
#325=AXIS2_PLACEMENT_3D('',#322,#323,#324);
#326=PLANE('',#325);
#327=ORIENTED_EDGE('',*,*,#67,.T.);
#328=EDGE_LOOP('',(#327));
#329=FACE_OUTER_BOUND('',#328,.T.);
#330=ORIENTED_EDGE('',*,*,#203,.T.);
#331=EDGE_LOOP('',(#330));
#332=FACE_BOUND('',#331,.T.);
#333=ADVANCED_FACE('',(#329,#332),#326,.T.);
#334=CLOSED_SHELL('',(#71,#99,#111,#131,#169,#210,#248,#289,#309,#321,#333));
#335=MANIFOLD_SOLID_BREP('',#334);
#336=COLOUR_RGB('Lexan (Clear)',0.800000011920929,0.800000011920929,0.800000011920929);
#337=FILL_AREA_STYLE_COLOUR('Lexan (Clear)',#336);
#338=FILL_AREA_STYLE('Lexan (Clear)',(#337));
#339=SURFACE_STYLE_FILL_AREA(#338);
#340=SURFACE_SIDE_STYLE('Lexan (Clear)',(#339));
#341=SURFACE_STYLE_USAGE(.BOTH.,#340);
#342=PRESENTATION_STYLE_ASSIGNMENT((#341));
#343=STYLED_ITEM('',(#342),#335);
#344=MECHANICAL_DESIGN_GEOMETRIC_PRESENTATION_REPRESENTATION('',(#343),#36);
#345=ADVANCED_BREP_SHAPE_REPRESENTATION('ABSR',(#335),#36);
#346=SHAPE_REPRESENTATION_RELATIONSHIP('SRR','None',#345,#41);
ENDSEC;
END-ISO-10303-21;
